rock
 
|tablatures   |lyrics   |discussion forums   |more tabs @ XGuitar.com

311 tabs

Large In The Margin guitar tab

'Large in the Margin'
Performed By 311
From the album "Soundsystem" on Capricorn Records
Music by:  C. Sexton
Lyrics by:  N. Hexum
(c) 1999 Hydroponic Music BMI
---------------
Tabbed by: Adam Wood (adam311@hotmail.com)
           Michael Slusarz (slusarz@bigworm.colorado.edu)
Additions/Corrections by: Fuzzytofu (Fuzzytofu@aol.com)
The 311 Guitar Archive -- http://bigworm.colorado.edu/311archive/


Intro:
======
  C5/G
e:---
B:---
D:---
G:-5-
A:-3-
E:-3-

Verse 1:
=========
   C5/G D5/A      C5/G
e:----------------------
B:----------------------
D:----------------------
G:-5\\\\7-7-7--7--5-5-5-
A:-3\\\\5-5-5--5--3-3-3-
E:-3\\\\5-5-5--5--3-3-3-
                  |P.M.|
Bridge 1:
=========
[Guitar 1:]
   F#5    G5
e:----------
B:----------
D:----------
G:-4------5-
A:-4------5-
E:-2------3-

[Guitar B:]
  (F#)          (G)
e:-9-----9------10-----10----
B:---11----11------12-----12-
D:---------------------------
G:---------------------------
A:---------------------------
E:---------------------------

Verse 2:
========
   D                 N.C.
e:-10-10-10-10--10---9--9--9--9-9-9-9-
B:-10-10-10-10--10---8--8--8--8-8-8-8-
D:------------------------------------
G:------------------------------------
A:------------------------------------
E:------------------------------------

Bridge 2:
=========
   N.C.
e:-9---9---9-9---9---9----9---9---9-11-11-11-
B:-8---8---8-8---8---8---10--10--10-10-10-10-
D:-------------------------------------------
G:-------------------------------------------
A:-------------------------------------------
E:-------------------------------------------

Chorus:
=======
   D                        E9
e:-10-10-10-10-10-10-10-10-(7-7-7-7-7-7-7-7)-
B:--7--7--7--7--7--7--7--7--7-7-7-7-7-7-7-7--
D:--7--7--7--7--7--7--7--7--7-7-7-7-7-7-7-7--
G:--7--7--7--7--7--7--7--7--6-6-6-6-6-6-6-6--
A:--------------------------7-7-7-7-7-7-7-7--
E:-------------------------------------------
  |         (x4)          ||     (x4)      |

     Bb/D                     D
e:-//10-10-10-10-10-10-10-10-----------------
B:-//11-11-11-11-11-11-11-11--7-7-7-7-7-7-7--
D:-//10-10-10-10-10-10-10-10--7-7-7-7-7-7-7--
G:-//12-12-12-12-12-12-12-12--7-7-7-7-7-7-7--
A:---------------------------(5-5-5-5-5-5-5)-
E:-------------------------------------------

Verse 3:
========
   G#5     G5      B5/F#   F#5 G#5     F#5     B5/F#   F#5
e:-------------------------------------------------------
B:-------------------------------------------------------
D:-------------------------------------------------------
G:-----------------4--4-4----------------------4--4-4----
A:-6--6-6--5--5-5--2--2-2--4---6--6-6--4--4-4--2--2-2--4-
E:-4--4-4--3--3-3--2--2-2--2---4--4-4--2--2-2--2--2-2--2-


Song Structure:
===============
---> Drum Intro (No Guitar)
---> Play Intro (x1):
---> Play Verse 1 (x8) over:
   Uh!
   Hey!
   Check it out!
   You got clout and you know that!
---> Play Verse 1 over:
   Large in the margin
   My drama unfolds behind closed doors
   Told on the down-low
   I believe that I'm so but really
   I don't know
   Maybe it's better, but I can't think so
   Maybe it's better to fight
   One never ever knows
   Believe the rumors that grow like tumors
   More fun than the truth
   That we know
---> Play Bridge 1 (x1) over:
   Trying
   Too hard to reach a higher plane
   We'll fuck you up
---> Play Verse 2 over:
   When you least expect it
   You think you're movin' close
   So and suddenly you wrecked it
   For all the sane the pain gains wisdom
   As if you ain't had enough then you're in some
   Prison of your own creation mental dilation
   Look at what your facin' placin'
   Play and never redirect it
   'Cause in the end it's your own infection, yeah
---> Play Bridge 2 (x1)
---> Play Chorus (x1) over:
   There's no way to avoid listening
   Always end up listening
   He's hoping the voices aren't too unkind
   He's hoping the voices are benign
   It's easier when you hear it
   There's no reason to fear it
   It's you, It's you
---> Play Verse 3 (x4) over:
   You think they'll probably find you
   Well then you're probably right
   'Cause they'll come back to remind you for eternity
   When you gave up the fight, yeah
   Somehow they always will find you
   The voices in the night and every night
   Keep comin' back to remind you for eternity
   Of when you gave up the fight
---> Play Verse (x4):
---> Play Chorus (x1) over:
   There's no way to avoid listening
   Always end up listening
   He's hoping the voices aren't too unkind
   He's hoping the voices are benign
   It's easier when you hear it
   There's no reason to fear it
   It's you, It's you
  development and support by
dmitry ivanov