rock
 
|tablatures   |lyrics   |discussion forums   |more tabs @ XGuitar.com

311 tabs

Jackolantern's Weather bass tab

'Jackolantern's Weather' -- Bass Tab
Performed by 311
From the album "311" on Capricorn Records
Music by:  C. Sexton
Lyrics by:  N. Hexum and SA Martinez
(c) 1995 Capricorn Records
---------------
Tabbed by: Jeremy Daw (summit@rideau.net)
The 311 Guitar Archive -- http://chromosome.colorado.edu/311archive/Home.html


Intro:
======

G:----------------------
D:----------------------
A:----------------------
E:----------------------
B:-3-3-3---3-3-3--3-3-3-


Riff 1:
=======

G:----------------------------
D:----------------------------
A:---------------5--3-3-3-2-0-
E:-3-5-3-5-3-5-3--------------
B:----------------------------


Riff 2:
=======

G:-------------------------------------------
D:-------------------------------------------
A:-5-0-5-7-5--0-5-7-5-0-5-0-5-7-5--0-5-7-5-0-
E:-------------------------------------------
B:-------------------------------------------


Chorus:
=======

G:-----------------------------------------
D:-----------------------------------------
A:-------1-1-2-4-2-2-----------1-1-2-4-2-4-
E:-4-4-4-------------4-2-4-4-4-------------
B:-----------------------------------------


Riff 3:
=======

G:----------------------------------------------------------------
D:---------------------------------------------------------2----4-
A:-0-0-------------0-0-------------0-0-------------0-0---2----4---
E:-----3-2-3-3-2-3-----3-2-3-3-2-3-----3-2-3-2-3-2-----3----5-----
B:----------------------------------------------------------------

Riff 4:
=======

G:---------------------------------
D:---------------------------------
A:-4-----4-----4---4-----4-----4-5-
E:---2-2---2-2---2---2-2---2-2-----
B:---------------------------------


Riff 4 (last time through):
===========================

G:--------------------------------------
D:--------------------------------------
A:-4-----4-----4---4-----4--------------
E:---2-2---2-2---2---2-2---2-2--2--2--3-
B:--------------------------------------


== Last Updated:  November 23, 1997 ==
  development and support by
dmitry ivanov