rock
 
|tablatures   |lyrics   |discussion forums   |more tabs @ XGuitar.com

311 tabs

It's Getting OK Now bass tab

Artist: 311
Song Name: It's Getting OK now
Bassist: P-nutt

Standard Tuning E A D G

Intro.....

silent for 2 measures
play for 4 measures

G|----------------------------|      G|--------------------|
D|----------------------------|  or  D|--------------------|
A|-0--0-3-0-3-----------------|      A|--------------------|
E|------------00000000--------|      E|-5--5-8-5-8-00000000|

(if u want to make it sound good play......

G|------------------------|
D|------------------------|
A|-----3----3-----77777777|
E|-5-5---5--------00000000|

your playing E and its octave, which gives it a better sound)

G|----|
D|----|
A|----|
E|-5//|

Verse.....

Silent for 3 measures
Come in on 4th measure

G|----1212-77-5----|
D|--------------7-5|
A|-----------------|
E|-----------------|

then play....

G|---------------------|
D|---77--00h55-0-------|
A|---------------5554--|
E|-5------------------0|

Chorus....

play 4 times

G|------------------------------------------------|
D|------------------------------------------------|
A|--------------------55555555--------------------|
E|-55555555-33333333------------------------------|

(if played on a 5-string, you would play the octave B|--33333333|)

G|---------------4----|
D|-------4-4h5h7---7-5|
A|-4h5h7--------------|
E|--------------------|

then back to intro....

play 4 times

G|----------------------------|      G|--------------------|
D|----------------------------|  or  D|--------------------|
A|-0--0-3-0-3-----------------|      A|--------------------|
E|------------00000000--------|      E|-5--5-8-5-8-00000000|

G|----|
D|----|
A|----|
E|-5//|

back to verse...


Silent for 3 measures
Come in on 4th measure

G|----1212-77-5----|
D|--------------7-5|
A|-----------------|
E|-----------------|

then play....

G|---------------------|
D|---77--00h55-0-------|
A|---------------5554--|
E|-5------------------0|

back to chorus....

play 4 times

G|------------------------------------------------|
D|------------------------------------------------|
A|--------------------55555555--------------------|
E|-55555555-33333333------------------------------|

G|---------------4----|
D|-------4-4h5h7---7-5|
A|-4h5h7--------------|
E|--------------------|

Bridge........

play 4 times...

G|-----------------------------------------------------------|
D|-----------------------------------------------------------|
A|-5/7---------------------------5/7-------------------------|
E|-----5--2-0-2-3-2-0-3-2-3-2-0------5--2-0-3-0-2-0-2-3-2-0--|

back to chorus.....

play 4 times

G|------------------------------------------------|
D|------------------------------------------------|
A|--------------------55555555--------------------|
E|-55555555-33333333------------------------------|

G|---------------4----|
D|-------4-4h5h7---7-5|
A|-4h5h7--------------|
E|--------------------|

back to intro.....

play 4 times

G|----------------------------|      G|--------------------|
D|----------------------------|  or  D|--------------------|
A|-0--0-3-0-3-----------------|      A|--------------------|
E|------------00000000--------|      E|-5--5-8-5-8-00000000|

G|----|
D|----|
A|----|
E|-5//|

end on A

G|---|
D|---|
A|-0-|
E|---|
  development and support by
dmitry ivanov