rock
 
|tablatures   |lyrics   |discussion forums   |more tabs @ XGuitar.com

311 tabs

Intro guitar tab

'Intro'
Performed by 311
From the album "Transistor" on Capricorn/Mercury Records
Music by:  N. Hexum, D. Martinez, C. Sexton, T. Mahoney, and A. Wills
(c) 1997 Hydroponic Music BMI
---------------
Tabbed by: Michael Slusarz (slusarz@bigworm.colorado.edu)
           Chris (Guinnes311@aol.com)
The 311 Guitar Archive -- http://bigworm.colorado.edu/311archive/

** This song is NOT played in Drop-D, although feel free to do so.  If you
play the song in Drop-D, the D5/A becomes (000xxx) and move everything
else an octave down to compensate) **

** To get to this song, pause and rewind your CD from the beginning of Track
1 (Transistor). The readout in your CD player should read a negative time.
NOTE: Not all CDs have this song on it. **


Riff 1a:
========
   D5/A E5/B F5/C
1:--------------
2:--------------
3:--------------
4:-7----9----10-
5:-5----7-----8-
6:-5----7-----8-

Riff 1b:
========
   D5/A E5/B F5/C
1:----------------------
2:----------------------
3:----------------------
4:-7----9----10--10--10-
5:-5----7-----8---8---8-
6:-5----7-----8---8---8-

Riff 2:
=======
   A5 G5     D5/A
1:-----------------------
2:-----------------------
3:-----------------------
4:-7--5--x-x-7-x-x-7-x-x-
5:-7--5--x-x-5-x-x-5-x-x-
6:-5--3--x-x-5-x-x-5-x-x-

Riff 3:
=======
   B5/F#        E5
1:--------------------------
2:--------------------------
3:--------------------------
4:-4-4-4-4-4-4--2-2-2-2-2-2-
5:-2-2-2-2-2-2--2-2-2-2-2-2-
6:-2-2-2-2-2-2--0-0-0-0-0-0-

Solo:
=====
   N.C.
1:-16-17-14-16--14----------------------------------------------
2:-----------------17--15-17-14-15--14--------------------------
3:-------------------------------------16--13-14-13-14-13-14-13-
4:--------------------------------------------------------------
5:--------------------------------------------------------------
6:--------------------------------------------------------------

   N.C.
1:--------------------------------------------------------------------------
2:--------------------------------------------------------------------------
3:----------------------------------------------------11-13-14-16--13-14-16-
4:-14-12-11-11-12-11------------------14-12-11-12-14------------------------
5:--------------------12-11///14--11----------------------------------------
6:--------------------------------------------------------------------------

   N.C.
1:----------14-------------------14-16-17-17///19--14-16-17-16-19-17-16-14-
2:-14-15-17----17-15---14h15h17--------------------------------------------
3:-------------------------------------------------------------------------
4:-------------------------------------------------------------------------
5:-------------------------------------------------------------------------
6:-------------------------------------------------------------------------

   N.C.
1:-17-16-14-12-16-14-12-10-14-12-10-9-10-12-14-10-12-14-16-12-14-16-17--19-
2:-------------------------------------------------------------------------
3:-------------------------------------------------------------------------
4:-------------------------------------------------------------------------
5:-------------------------------------------------------------------------
6:-------------------------------------------------------------------------


Song Structure:
===============
---> Play Riff 1a (x4)
---> Play Riff 1b (x4)
---> Play Riff 2 (x4)
---> Play Riff 1a (x4)
---> Play Riff 1b (x4)
---> Play Riff 2 (x4)
---> Play Riff 3 (x4)
---> Play E5 (022xxx) until end of song
  development and support by
dmitry ivanov