rock
 
|tablatures   |lyrics   |discussion forums   |more tabs @ XGuitar.com

311 tabs

Inner Light Spectrum bass tab

'Inner Light Spectrum' -- Bass Tab
Performed by 311
From the album "Transistor" on Capricorn/Mercury Records
Music by:  D. Martinez and C. Sexton
Lyrics by:  D. Martinez
(c) 1997 Hydroponic Music BMI
---------------
Tabbed by: Jeremy Daw (summit@rideau.net)
The 311 Guitar Archive -- http://chromosome.colorado.edu/311archive/Home.html


Riff 1:
=======

G:-------------------------
D:-------------------------
A:-------------------------
E:-4-x-4-4--2-2-x-2-2-2-22-
B:-------------------------


Riff 2:
=======

G:-------------
D:-------------
A:-------------
E:-4-4-4-2-2-2-
B:-------------


Riff 3:
=======

G:-------6-8-8--6-8-11--6-8-11--8-8-6-6--13-13-12-8-
D:---6-8--------------------------------------------
A:-6------------------------------------------------
E:--------------------------------------------------
B:--------------------------------------------------

G:-6h8------------------------------
D:-----6h8-8-5---5-6-8-8---5-6--8---
A:-------------6---------6--------4-
E:----------------------------------
B:----------------------------------


Riff 4:
=======
G:------------------------------------
D:------------------------------------
A:------------------------------------
E:-4-x-4-4-x-44-4-4--2-x-2-2-22-2-2-2-
B:------------------------------------

G:-----------------------------------
D:-----------------------------------
A:-----------------------------------
E:-0-00-0-0-0-0-0---2-x-2-2-22-2-2-2-
B:-----------------------------------


== Last Updated:  September 16, 1997 ==
  development and support by
dmitry ivanov