rock
 
|tablatures   |lyrics   |discussion forums   |more tabs @ XGuitar.com

311 tabs

Ill Be Here Awhile guitar tab

From: "Wesely Runyon" <eretor@hotmail.com>
Subject: 3/311/ill_be_here_awhile.tab
Date: Sat, 04 Aug 2001 05:06:50 

Tabbed by: Jason R.
Band: 311
Song: I'll Be Here Awhile
Album: From Chaos
E-mail: eretor@hotmail.com


Intro:
G.1
E|-0-00-0-0-2-02-2/3-3-2-0--------------|
B|-------------------------3-1-0-----1--|
G|-------------------------------234--2-|
D|--------------------------------------|
A|--------------------------------------|
E|--------------------------------------|

E|-00-0-0-2-02-2/3--2--0--------------|
B|------------------------3---------1-|
G|-----------------4--4--4---45-234---|
D|----------------5--5--5---5---------|
A|------------------------------------|
E|------------------------------------|

Chorus 1:
G.2
E|-7-7-7-7-7-7-7-7-3-3-3-3-3-3-3-3-|
B|-8-8-8-8-8-8-8-8-3-3-3-3-3-3-3-3-|
G|-9-9-9-9-9-9-9-9-4-4-4-4-4-4-4-4-|
D|---------------------------------|
A|---------------------------------|
E|---------------------------------|

Verse:
G.2
A1)
E|-2-2-2-2-2-2-2-2-3-3-3-3-3-3-3-3-|
B|-3-3-3-3-3-3-3-3-3-3-3-3-3-3-3-3-|
G|-4-4-4-4-4-4-4-4-4-4-4-4-4-4-4-4-|
D|---------------------------------|
A|---------------------------------|
E|---------------------------------|

G.2
B1)
E|-3-3-|
B|-5-3-|
G|-4-4-|
D|-----|
A|-----|
E|-----|

G.2
B2)
E|---0-353-0-2-----7-||---3-3----3-3-|
B|--4-----3------5-5-||--5--5---3--3-|
G|-3------------4--4-||-4---4--4---4-|
D|-------------5---5-||--------------|
A|-------------------||--------------|
E|-------------------||--------------|

Chorus 2:
G.1
E|-00-0-00-0-0-2-02-2/3-3-2-0-------------|
B|----------------------------3-1-0----1--|
G|----------------------------------234---|
D|----------------------------------------|
A|----------------------------------------|
E|----------------------------------------|

G.2
E|-7-7-7-7-7-7-7-7-3-3-3-3-3-3-3-3-|
B|-8-8-8-8-8-8-8-8-3-3-3-3-3-3-3-3-|
G|-9-9-9-9-9-9-9-9-4-4-4-4-4-4-4-4-|
D|---------------------------------|
A|---------------------------------|
E|---------------------------------|


ORDER:
Intro
Chorus 1
Verse A1
Verse B1
Chorus 1
Verse A1
Verse B1
Chorus 2
Verse B2
Chorus 2
  development and support by
dmitry ivanov