rock
 
|tablatures   |lyrics   |discussion forums   |more tabs @ XGuitar.com

311 tabs

Ill Be Here Awhile bass tab

311 - "I'll Be Here Awhile"
from the album FROM CHAOS
tabbed by Mike Gallagher (gallagwar@aol.com)

Intro/Chorus
============

G:-----------------------------------------------------
D:-----------------------------------------------------
A:-0-0--0-2-2--2-3-3--5--3-2-------3--5--3--2--0-0-2-3-
E:----------------------------3-3----------------------
B:-----------------------------------------------------

Verse:
======

G:--------4-7-6-4-x-7-6------------------------------
D:------4---------------//4--------------------------
A:-2-2-----------------------------------------------
E:----------------------------0-0--2-3-2--0-0--2-3-2-
B:---------------------------------------------------

Pre-Chorus:
===========

G:---------4-----------------4------
D:----2--5---5---2------------------
A:-3--------------------2--5---5--2-
E:-------------------3--------------
B:----------------------------------

G:---------4-----------------4--2--4-
D:----2--5---5---2-------------------
A:-3--------------------2--5---------
E:-------------------3---------------
B:-----------------------------------

Bridge:
=======

G:---------------------------------------------------
D:---------------------------------------------------
A:---------------------------------------------------
E:---7--7--7--7--7--7--7--7---0-0--2-3-2--0-0--2-3-2-
B:-0--0--0--0--0--0--0--0----------------------------

G:------------------------------------------------------
D:------------------------------------------------------
A:-----------------------------------------3-3----3-3---
E:---7--7--7--7--7--7--7--7---0-0--2-3-2----------------
B:-0--0--0--0--0--0--0--0-----------------------1-----1-

G:-------------------2-4-
D:-----------------------
A:-----------------------
E:-----3---------3-------
B:-1-------1-------------
  development and support by
dmitry ivanov