rock
 
|tablatures   |lyrics   |discussion forums   |more tabs @ XGuitar.com

311 tabs

I Told Myself bass tab

Song:I Told Myself

Band:311

Album:From Chaos

Tabber:T4-TURBO

Riff 1:
G:-7-5-----
D:-----7---
A:-------7-
E:---------
B:---------

Riff 2:
G:-----------------------------------------------------------------------
D:-----------------------------------------------------------------------
A:-----------------------------------------------------------------------
E:-5-3--5-3--0-1--0-1--3-2--3-2--0-1--0-1---5-3--5-3--0-1--0-1--3-2--3-2-
B:-----------------------------------------------------------------------

G:------------
D:------------
A:--------1h3-
E:-0-1--0-----
B:------------

Riff 3:
G:------------------------------------------------
D:------------------------------------------------
A:------------------------------------------------
E:-5-3--5-3--0-1-1--0-1-1--5-2--5-2--0-1-1--0-1-1-
B:------------------------------------------------

Riff 3a:
G:------------------------------------------------
D:------------------------------------------------
A:------------------------------------------------
E:-5-3--5-3--0-1-1--0-1-1--5-2--5-2--0-1-1--1-1-1-
B:------------------------------------------------

Riff 4:
G:----------------------------------------------------
D:-----------------------------------------5----------
A:----------------------------------------------------
E:-3-3-3-5--6-5--3--3-3-3-3--3-3-3-5--6-5-----3-3-3-3-
B:----------------------------------------------------

Riff 5:
G:-----------------------------
D:-----------------------------
A:---2----------2--------2-----
E:-0---5-4--0-0---5-4--0---5-4-
B:-----------------------------

Riff 5a:
G:-------------
D:-------------
A:-----2-----5-
E:-0-0----5----
B:-------------

Riff 5b:
G:-------------
D:-------------
A:-----2-------
E:-0-0----5----
B:-----------3-

Riff 6:
G:----------------------------
D:----------------------------
A:----------------------------
E:----------------------3-1---
B:-3---1---3---1--1-1-------1-

Riff 7:
G:-----------------------------------------------------------------
D:-----------------------------------------------------------------
A:-----------------------------------------------------------------
E:-1-1-1-1-1-1-1-1-1-1-1-1-1-1-1-1-3-3-3-3-3-3-3-3-3-3-3-3-3-3-3-3-
B:-----------------------------------------------------------------
=======================================================================
Song:Champagne

Main riff:
g:-------------------------------------------|
d:-------------------------------------------|
a:--------------------------------------5555-|
e:5--0-5-0-5-0-7-0-3-2-2-5-3-2-5-2--3-5------|
b:-------------------------------------------|

Riff2:
g:----------------------------------|
d:----------------------------------|
a:-----------------------------5555-|
e:1//5-3--0-5--0-5-0-3-5-3-3-5------|
b:----------------------------------|

Riff3:
g:-------------------|
d:-------------------|
a:--------6-----7777-|
e:7---5---4---6------|
b:-------------------|

Ending:
g:-------------|
d:-------------|
a:-------------|
e:9--7-----5---|
b:------3----4-|
  development and support by
dmitry ivanov