rock
 
|tablatures   |lyrics   |discussion forums   |more tabs @ XGuitar.com

311 tabs

Give Me A Call guitar tab

Song: Give Me a Call
Band: 311
Album: Evolver
Music by N. Hexum/C. Sexton



Riff 1 (palm muted during clean parts)
-----------------------------
-----------------------------
-----------------------------
-----------------------------
-5---------------------------
---2-3-5-5-5-5-0-5-5-5-5-5-5-


Riff 2 (palm muted during clean parts)
-----------------------------
-----------------------------
-----------------------------
-------1---------------------
-2-2-2---2-------------------
-----------5-5-5-5-5-4-2-(4)-
note in parenthesis only played second time
fourth time stop on the first 0


Riff 3
-------------------4------------------4-------
-----------------5------------------5---5-----
---3-4-6-------4-------3-4-6------4-------4---
-4-------2---6-------4-------2--6-----------6-
----------------------------------------------
----------------------------------------------

-------------------4---------------------4-
-----------------5--------------------5----
---3-4-6-------4-------3-4-6-------4-------
-4-------2---6--------4------2--6----------
-------------------------------------------
-------------------------------------------


Riff 4 (palm muted)
-----------------------------------------------
-----------------------------------------------
-----------------------------------------------
----1-1-1----4-4-2-2----1-1-1----4-4-4-4-4-2-2-
-2--------0----------2--------0----------------
-----------------------------------------------
second time stop on second 0


additional Riff 2 ending
---------------------------
---------------------------
---------------------------
-------1-------------------
-2-2-2---2-----------------
-----------5-4-2-4-5-4-2-4-



(note: it's hard to tell, but I think all the clean parts may be played with a phaser)
Riff 1 clean (x12)

Riff 2 clean (x4)

Riff 1 w/ distortion & octave (x4)

Riff 2 w/ distortion & octave (x4)

Riff 1 clean (x8)

Riff 2 clean (x4)

Riff 1 w/ distortion & octave (x4)

Riff 2 w/ distortion & octave (x4)

Riff 3 clean (x2)

Riff 4 clean (x2)

Riff 1 w/ distortion & octave (x4)

Riff 2 w/ distortion & octave (x8 w/ additional riff 2 ending on fourth time)
  development and support by
dmitry ivanov