rock
 
|tablatures   |lyrics   |discussion forums   |more tabs @ XGuitar.com

311 tabs

Give Me A Call bass tab

Title: Give Me a Call

Artist: 311

Album: Evolver

Instrument: 5 String Bass

Tabbed by: chris.funkhouser@houstonchristianhs.org

E-mail me with corrections!

Tuning: Standard (B E A D G)




Intro/Verse:

G|-------------------------------------------------------------------||
D|-------------------------------------------------------------------||
A|-5-------------------------------5---------------------------------||
E|---2-3-5-5-5-5-0-5-5-5-5-5-5-5-----2-3-5-5-5-5-0-5-5-5-5-5-5-5-----||
B|-------------------------------------------------------------------||



G|-------------------------------------------------------------------||
D|-------------------------------------------------------------------||
A|-5--------------------------------5--------------------------------||
E|-----2-3-5-5-5-5-0-5-5-5-5-5-5-5-----2-3-5-5-5-5-0-5-5-5-5-5-5-5---||
B|-------------------------------------------------------------------||

2nd Verse Part:

G|-------------------------------------------------------------||
D|---------1-----------------------------1---------------------||
A|-2-2-2-2---2-------------------2-2-2-2---2-------------------||
E|--------------5-5-5-5-5-4-2----------------5-5-5-5-5-4-2-----||
B|-------------------------------------------------------------||


G|-------------------------------------------------------------||
D|---------1----------------------------1----------------------||
A|-2-2-2-2---2------------------2-2-2-2---2--------------------||
E|-------------5-5-5-5-5-4-2----------------5------------------||
B|-------------------------------------------------------------||

Chorus (same as verse):


G|-------------------------------------------------------------------||
D|-------------------------------------------------------------------||
A|-5-------------------------------5---------------------------------||
E|---2-3-5-5-5-5-0-5-5-5-5-5-5-5-----2-3-5-5-5-5-0-5-5-5-5-5-5-5-----||
B|-------------------------------------------------------------------||



G|-------------------------------------------------------------------||
D|-------------------------------------------------------------------||
A|---5-------------------------------5--------------------------------||
E|-----2-3-5-5-5-5-0-5-5-5-5-5-5-5-----2-3-5-5-5-5-0-5-5-5-5-5-5-5---||
B|-------------------------------------------------------------------||

2nd Chorus part:

G|-------------------------------------------------------------||
D|-------------------------------------------------------------||
A|-------------------------------------------------------------||
E|-------------5-5-5-5-5-4-2--------------5-5-5-5-5-4-2--------||
B|-0-0-0-0-4-0----------------0-0-0-0-4-0----------------------||


G|-------------------------------------------------------------||
D|-------------------------------------------------------------||
A|-------------------------------------------------------------||
E|-------------5-5-5-5-5-4-2--------------5--------------------||
B|-0-0-0-0-4-0----------------0-0-0-0-4-0----------------------||


Bridge (SA's part)- listen for timing to come in:

G|-------------------------||
D|---------------6---------||
A|-----------7-------------||
E|----4---7----------------||
B|-------------------------||

G|--------------------------------------------------------------------------||
D|--------------------------------------------------------------------------||
A|--------------------------------------------------------------------------||
E|--------------------------------------------------------------------------||
B|-7--7-7-7--5--5-5-5--7--7-7-7--5-5-5-5-5-5--7--7-7-7--5--5-5-5--7--7-7-7--5-||

G|----------------------||
D|-------------6--------||
A|----------7-----------||
E|----4--7--------------||
B|----------------------||


Bridge (Nick's Part):


G|------------------------------------------------------------------------||
D|----1-1-1----4-4-4----1-1-1---4-4-4-4-4----1-1-1----4-4-4---1-1-1-------||
A|-2--------0--------2--------0-----------2--------0--------2-------0-----||
E|------------------------------------------------------------------------||
B|------------------------------------------------------------------------||



Variation during last chorus (listen for this, happens at about 3:06):


E|---------------------------------||
B|---------------------------------||
G|---------------------------------||
D|---------------------------------||
A|---------------------------------||
E|-5-4-2-0--5-4-2-0----------------||
  development and support by
dmitry ivanov