rock
 
|tablatures   |lyrics   |discussion forums   |more tabs @ XGuitar.com

311 tabs

Getting Through To Her guitar tab

311 - Getting Through To Her
Tabbed By: suzy q
Email: mocisins@yahoo.com

Tuning: Standard (E A D G B E)



Intro

E|-9-h-11-11-9-----------------------------||
B|--------------12--12--9------------------||
G|--------------------------11-------------||
D|-----------------------------------------||
A|-----------------------------------------||
E|-----------------------------------------||


E|-9-h-11-11-9-------------9--11-----------||
B|-------------12--12--12---------12-------||
G|-----------------------------------------||
D|-----------------------------------------||
A|-----------------------------------------||
E|-----------------------------------------||


E|-9------9--9--11--12--11--12s/14--12--12--12--11--12--9--9--9s\7--7-||
B|----12--------------------------------------------------------------||
G|--------------------------------------------------------------------||
D|--------------------------------------------------------------------||
A|--------------------------------------------------------------------||
E|--------------------------------------------------------------------||



E|-9-h-11-11-9-----------------------------||
B|--------------12--12--9------------------||
G|-------------------------11--------------||
D|-----------------------------------------||
A|-----------------------------------------||
E|-----------------------------------------||


E|-9-h-11-11-9-------------9--11-----------||
B|-------------12--12--12---------12-------||
G|-----------------------------------------||
D|-----------------------------------------||
A|-----------------------------------------||
E|-----------------------------------------||


E|-9------9--9--11--12--11--12s/14--12--12--12--11--12--9--9--9s\7--7-||
B|----12--------------------------------------------------------------||
G|--------------------------------------------------------------------||
D|--------------------------------------------------------------------||
A|--------------------------------------------------------------------||
E|--------------------------------------------------------------------||




E|-9-h-11-11-9-----------------------------||
B|--------------12--12--9------------------||
G|-------------------------11--------------||
D|-----------------------------------------||
A|-----------------------------------------||
E|-----------------------------------------||



E|--7--7--xx-7-----9-9-9-9-9-9-9-----------||
B|--7--7--xx-7-----9-9-9-9-9-9-9-----------||
G|--8--8--xx-8-----9-9-9-9-9-9-9-----------||
D|--9--9--xx-9-----9-9-9-9-9-9-9-----------||x7
A|--9--9--xx-9-----7-7-7-7-7-7-7-----------||
E|--7--7--xx-7-----------------------------||


E|-------7--9--11-9let-ring-------7--9--11--9-7--7----------------||
B|--7--9----------------------7-9---------------------------------||
G|----------------------------------------------------------------||
D|----------------------------------------------------------------||x2
A|----------------------------------------------------------------||
E|----------------------------------------------------------------||

E|--7--7--xx-7-----9-9-9-9-9-9-9-----------||
B|--7--7--xx-7-----9-9-9-9-9-9-9-----------||
G|--8--8--xx-8-----9-9-9-9-9-9-9-----------||
D|--9--9--xx-9-----9-9-9-9-9-9-9-----------||x7
A|--9--9--xx-9-----7-7-7-7-7-7-7-----------||
E|--7--7--xx-7-----------------------------||


E|-------7--9--11-9let-ring-------7--9--11--9-7--7----------------||
B|--7--9----------------------7-9---------------------------------||
G|----------------------------------------------------------------||
D|----------------------------------------------------------------||x2
A|----------------------------------------------------------------||
E|----------------------------------------------------------------||



E|--7--7--7--9---9---9---9---9---9---9----------------------------||
B|--7--7--7--9---9---9---9---9---9---9----------------------------||
G|--8--8--8--10--10--10--10--10--10--10---------------------------||
D|--9--9--9--11--11--11--11--11--11--11---------------------------||x5
A|--9--9--9--11--11--11--11--11--11--11---------------------------||
E|--7--7--7--9---9---9---9---9---9---9----------------------------||


E|----------------------------------------------------------------||
B|----------------------------------------------------------------||
G|----------------------------------------------------------------||
D|-44-44-----------------22--22-----------------------------------||x4
A|-44-44--4s/66666--4--2-22--22--0--0--2--4--2--0-----------------||
E|-22-22-----------------00--00-----------------------------------||


E|----------------------------------------------------------------||
B|----------------------------------------------------------------||
G|----------------------------------------------------------------||
D|--4444444444444444--22222222222222--44444444--22222222222222----||
A|--4444444444444444--22222222222222--44444444--22222222222222----||
E|--2222222222222222--00000000000000--22222222--00000000000000----||

CLEAN
E|-9---7--7--5-----9---7--7---------------------------------------||
B|-9---7--7--5-----9---7--7---------------------------------------||
G|-9---8--8--6-----9---8--8---------------------------------------||
D|-9---9--9--7-----9---9--9---------------------------------------||
A|-7---9--9--7-----7---9--9---------------------------------------||
E|-----7--7--5---------7--7---------------------------------------||



E|-------7--9--11-9let-ring-------7--9--11--9-7--7----------------||
B|--7--9----------------------7-9---------------------------------||
G|----------------------------------------------------------------||
D|----------------------------------------------------------------||x2
A|----------------------------------------------------------------||
E|----------------------------------------------------------------||




E|--7--7--7--9---9---9---9---9---9---9----------------------------||
B|--7--7--7--9---9---9---9---9---9---9----------------------------||
G|--8--8--8--10--10--10--10--10--10--10---------------------------||
D|--9--9--9--11--11--11--11--11--11--11---------------------------||x5
A|--9--9--9--11--11--11--11--11--11--11---------------------------||
E|--7--7--7--9---9---9---9---9---9---9----------------------------||

END ON
E|-7---------------||
B|-7---------------||
G|-8---------------||
D|-9---------------||
A|-9---------------||
E|-7---------------||
  development and support by
dmitry ivanov