rock
 
|tablatures   |lyrics   |discussion forums   |more tabs @ XGuitar.com

311 tabs

Gap guitar tab

'Gap'
Performed by 311
From the album/video "Enlarged to Show Detail" on Capricorn Records
Music by:  N. Hexum
Lyrics by:  N. Hexum & D. Martinez
(c) 1995 Allegiance Music/Hydroponic Music BMI
---------------
Tabbed by: Greg Castrigano (FTQV95C@prodigy.com)
Additions/Corrections by: Michael Slusarz (slusarz@ucsu.colorado.edu)
                          Springer (DSPRiNGR@aol.com)
                          Guru (norcross@mindspring.com)
Lyric help by: Pat Macdonald (pamacdona@dns.brownell.edu)
               Andrew Ledell (jledell@midusa.net)
               Ted Francis (Wafrancis@aol.com)
               The Colonel (BPerry4612@aol.com)
               Unknown (TJAE311@aol.com)
               Toadie8587 (Toadie8587@aol.com)
The 311 Guitar Archive -- http://chromosome.colorado.edu/311archive/Home.html


Main Riff (w/Distortion):
=========================
   N.C.
1:-------------------------------
2:-------------------------------
3:-------------------------------
4:---4-2-0-0---0-2---------------
5:-2---------4-----4-4-------4-2-
6:---------------------0-2-5-----

Chorus (w/Heavy Distortion):
============================
   B5/F#         A5            C5/G          G5
1:-------------------------------------------------------
2:-------------------------------------------------------
3:-4--4-4--4-4-----------------5--5-5--5-5---------------
4:-4--4-4--4-4---7--7-7--7-7---5--5-5--5-5---5--5-5--5-5-
5:-2--2-2--2-2---7--7-7--7-7---3--3-3--3-3---5--5-5--5-5-
6:-2--2-2--2-2---5--5-5--5-5---3--3-3--3-3---3--3-3--3-3-
 
Post-Chorus (w/Distortion):
===========================
   D5   F#5  C5   D5            F#5  C5
1:--------------------------------------
2:--------------------------------------
3:------11----------------------11------
4:-12---11---10---12-12-12-12---11---10-
5:-12----9---10---12-12-12-12----9---10-
6:-10---------8---10-10-10-10---------8-


Lyrics/Song Structure:
======================
---> Play Main Riff over:
   Purified sounds brush them on like paint
   Teenage dream to work with Ron Saint
   Home he ain't, we laying tracks in Cali
   The dude is excitable like a pep rally
   Since the days of the Eds, in the Westside
   Keeping it real, got nothing to hide
   Now we are a number, there is none greater
   Take me out sound king, yo peace, see 'ya later
---> Play Chorus over:
   Let's step back tonight, all night
   The groove is soothing, (like disco, get down tonight)
   Let's step back tonight, all right
   It's a better feeling with my friends once again
---> Play Main Riff over:
   Grape vess sodapop licorice stick
   Aunt Mary's summertime, backyard picnic
   Did you drink my beer Doug, yeah I did it
   Don't tell meto bring you  beer if you think I won't sip it
   Swingin' on, swingin' on jungle gym sets
   Daddy talkin' about the horses he bet
   When I got home my friends phoned Hey Holmes
---> Play Chorus over:
   Let's step back tonight, all night
   The groove is soothing, (like disco, get down tonight)
   Let's step back tonight, all right
   It's a better feeling with my friends once again
---> Play Post-Chorus over:
   (Distorted): Eat smoked fish, that is my favorite dish (x4)
                [We smoke hash, that is the way it is]
                [East coast edge, that is the way it is]
---> Play Chorus over:
   Let's step back tonight, all night
   The groove is soothing, (like disco, get down tonight)
   Let's step back tonight, all right
   It's a better feeling with my friends once again
---> Play Post-Chorus over:
   (Distorted): Eat smoked fish, that is my favorite dish (x4)
                [We smoke hash, that is the way it is]
                [East coast edge, that is the way it is]


== Last Updated:  February 10, 1999 ==
  development and support by
dmitry ivanov