rock
 
|tablatures   |lyrics   |discussion forums   |more tabs @ XGuitar.com

311 tabs

Gap bass tab

'Gap'
Performed by 311
From the album/video "Enlarged to Show Detail" on Capricorn Records
Music by:  N. Hexum
Lyrics by:  N. Hexum & D. Martinez
(c) 1995 Allegiance Music/Hydroponic Music BMI
---------------
Tabbed by: Justin Reynolds (ChAoSHeX@juno.com)
The 311 Guitar Archive -- http://chromosome.colorado.edu/311archive/Home.html


Riff 1:
=======

G:-----------------------------
D:---4-2-0-0---0-2-------------
A:-2---------4-----4-4-----4-2-
E:---------------------0-2-----


Riff 2:
=======

G:--------------------------------
D:--------------------------------
A:--------------------------------
E:-2--2-2--5--5-5--3--3-3---3-3-3-


Riff 3:
=======

G:---------------------------------
D:---------------------------------
A:-----9-------------------------9-
E:-10-----8----10-10-10-10----8----


Song Structure:
===============
Riff 1 - (4x)
Riff 2 - (2x)
Riff 1 - (4x)
Riff 2 - (2x)
Riff 3 - (4x)
Riff 2 - (2x)
Riff 3 - (4x)


== Last Updated:  September 25, 1997 ==
  development and support by
dmitry ivanov