rock
 
|tablatures   |lyrics   |discussion forums   |more tabs @ XGuitar.com

311 tabs

Full Ride guitar tab

'Full Ride'
Performed by 311
From the album "From Chaos" on Volcano Records
Music by:  [Unknown]
Lyrics by:  [Unknown]
(c) 2000/2001 Hydroponic Music BMI
---------------
Tabbed by: Ryan Abts (PhishHippo@aol.com)
Additions/Corrections by: Michael Slusarz (slusarz@bigworm.colorado.edu)
The 311 Guitar Archive -- http://bigworm.colorado.edu/311archive/


Intro (w/Distortion & Octaver):
===============================
   N.C.
e:-----------------------------------------------------------
B:-----------------------------------------------------------
G:-----------------------------------------------------------
D:---3-1----------3-1----------3-1-----3-1-----3-1---1//3--3- 
A:-------4------------4------------4-------4-------4---------
E:-4-------5b---4-------5b---4-------4-------4---------------

Riff 1 (w/Distortion):
======================
   F#5 E5    F#5 E5    F#5 E5    F#5 E5
e:--------------------------------------------- 
B:--------------------------------------------- 
G:--------------------------------------------- 
D:--------------------------------------------- 
A:-4---2-2---4---2-2---4---2-2---4---2-2--2--2- 
E:-2---0-0---2---0-0---2---0-0---2---0-0--0--0- 
      |P.M.|    |P.M.|    |P.M.|    |   P.M.  | 

Chorus (w/Distortion & Octaver):
================================
   N.C.
e:------------------------------------------------------------- 
B:------------------------------------------------------------- 
G:------------------------------------------------------------- 
D:--------1-4--------------1----------------1-4--------------1- 
A:-2-1-2-------2--2-1-2--2---2-4-2---2-1-2-------2--2-1-2--2--- 
E:------------------------------------------------------------- 

   N.C.
e:---------------------------------------------------------- 
B:---------------------------------------------------------- 
G:---------------------------------------------------------- 
D:----------------1-4--------------1----------------1-4----- 
A:-2-4-2---2-1-2-------2--2-1-2--2---2-4-2---2-1-2-------2-- 
E:---------------------------------------------------------- 

   N.C.
e:-------------------------- 
B:-------------------------- 
G:-------------------------- 
D:---3-1----3-1---3-1---1/3- 
A:-2------------------4----- 
E:--------4-----3----------- 

Riff 2 (w/Distortion):
======================
   F#5 E5
e:---------------------- 
B:---------------------- 
G:---------------------- 
D:---------------------- 
A:-4---2-2--2--2-2-2-2-2- 
E:-2---0-0--0--0-0-0-0-0- 
      |      P.M.       | 

Riff 3 (w/Distortion & Octaver):
================================
   N.C.
e:------------------------------------- 
B:------------------------------------- 
G:------------------------------------- 
D:---------------------------------2--- 
A:---4---2-5-5-0-3-4---4---2-5-5-0---4- 
E:-5---3-------------5---3------------- 

Ending (w/Distortion and Octaver):
==================================
   F#5 E5
e:-------
B:-------
G:-------
D:-------
A:-4---2-
E:-2---0-


Song Structure/Lyrics:
======================
---> Play Intro (x1)
---> Play Riff 1 over:
---> Play Chorus over:
---> Play Riff 2 over:
---> Play Riff 3 over:
---> Play Riff 1 over:
---> Play Chorus over:
---> Play Riff 3 over:
---> Play Ending (x1)
  development and support by
dmitry ivanov