rock
 
|tablatures   |lyrics   |discussion forums   |more tabs @ XGuitar.com

311 tabs

Full Ride bass tab

Song: Full Ride
Artist: 311
Album: From Chaos
Tabbed by: Spinder<spinder79@yahoo.com>

Intro
            b1/2         b1/2                         b1/2---->
G|-------------------------------------------------------------
D|-------------------------------------------------------------
A|----8-7-5--------8-7-5--------8-7-5---8-7-5---8-7-5--7----7--
E|--7-------4----7-------4----7-------7-------7----------------
B|-------------------------------------------------------------

Verse 1&3
    b1/2      b1/2      b1/2      b1/2
G|--------------------------------------------  variation
D|--------------------------------------------     b1/2  p p                                
A|--------------------------------------------  A|-------7-7
E|--------------------------------------------  E|----------
B|--6---x5----6---x5----6---x5----6---x5-5-55-  B|-6---x5---

Chorus
                                                                                    b1/2
G|------------------------------------|first chorus|------------------------------------
D|------------------------------------|ends like   |------------------------------------
A|--------x6-9-------------x6---------|this. 2nd   |--------x6-9----x6---x4---8-7-5-7--- 
E|--7-5-7------x7--5-7-5-7----7-7-9-7-|ends        |--7-5-7------x7----7----5-----------
B|------------------------------------|normally.   |------------------------------------

Verse 2
   b1/2  
G|-------------------------------------
D|-------------------------------------
A|------------7--------7--------7------
E|-------------------------------------
B|-6---5-55-5---5--5-5---5-55-5---5----

Bridge

G|-------------
D|-------------
A|-----------3-
E|--5-x3-x55---
B|-------------
  development and support by
dmitry ivanov