rock
 
|tablatures   |lyrics   |discussion forums   |more tabs @ XGuitar.com

311 tabs

From Chaos bass tab

'From Chaos'

Performed By:311

Album:From Chaos(2001)

Tabber:T4-TURBO

Riff 1:
G:----------------------------------------------------|
D:----------------------------------------------------|
A:---------------------------------------3---3--------|
E:3--3-3-1--1-1-----0-0-1--3--3-3-1--1-1-----------0-1|
B:--------------1-1----------------------------1-1----|

Riff 2:
G:----------------|
D:----------------|
A:----------3-5-3-|
E:3-3-3-3-6-------|
B:----------------|

Riff 3:
G:--------------------|
D:--------------------|
A:-------5-5-5-5-3---5|
E:3--3-3-----------3--|
B:------(3-3-3-3-1)---|

Riff4:
G:-------------------------------|
D:-------------------------------|
A:----5-3-3-1-1-0-----5-5-3-1-1-0|
E:3-3-------------3-3------------|
B:-------------------------------|

end.
  development and support by
dmitry ivanov