rock
 
|tablatures   |lyrics   |discussion forums   |more tabs @ XGuitar.com

311 tabs

Freeze Time bass tab

'Freeze Time' - Bass Tab
Performed by 311
From the album "Soundsystem" on Capricorn Records
Music by:  N. Hexum
Lyrics by:  N. Hexum & D. Martinez
(c) 1999 Hydroponic Music BMI
---------------
Tabbed by: Justin Reynolds (jxstylez@aol.com)
The 311 Guitar Archive -- http://chromosome.colorado.edu/311archive/


Riff 1:
=======

G:-----------------
D:-----------------
A:-----------------
E:-0-3-2-0-5-3-2-0-
B:-----------------

'You will be a mortal man...':
==============================

G:-------------------------
D:-------------------------
A:-------------------------
E:-2-2---2-2---2-2-5-5-2-2-
B:-------------------------

Riff 2:
=======

G:------------------------------------------------
D:------------------------------------------------
A:------------------------------------------------
E:-0-5-5-5-5--0-5-5-5-5--0-5-5-5-5--0-5-5-5-3-2-0-
B:------------------------------------------------

'Try to freeze time...':
========================

G:-----------------------------------
D:-----------------------------------
A:-----------------------------------
E:-0-0-0-0-0-0-5---3-2-0-3-5-3-2-3-0-
B:-----------------------------------

Ending:
=======

G:---------------
D:---------------
A:---------------
E:-3-2-5-3-2-5-3-
B:---------------
  development and support by
dmitry ivanov