rock
 
|tablatures   |lyrics   |discussion forums   |more tabs @ XGuitar.com

311 tabs

Flowing bass tab

[2 version]
From: Jizzel- o bass playa 
Artist:	311
Album:	soundsystem
Song:	flowing

bass tab


intro:
g:--------------------
d:--------------------
a:2-------------5-----           
E:--------------------
b:-----2----0--------5

chorus
g:------------------------------------
d:------------------------------------
a:------------------------------------
e:--------3-3-----2-2-2///5-----------
b:3-3-3-3-----0-0-----------5-5-0-00-0

g:-------------------------------
d:------------------------------- 
a:----------------------------5-5
e:------------------------5------
b:3-3-3-3-2-2-2-2-0-0-0-0---5---- 

g:---------------------------
d:---------------------------
a:---------------------------
e:--------2-2-2-2-1-1-1-1///5
b:3-3-3-3---------------------(5)Let Ring.

main riff.
g:-------------------------
d:-------------------------
a:-------------------------
e:-------------------------
b:2-333-4-555-222-3-4-55555

main2
g:--------------
d:---------------
a:---------------
e:5--3--5--3--5-3
b:--------------- 

end:
g:----------------
D:----------------
a:----------------
e:----------------
B:(5)---let ring--


-------------------- version 2 ----------------

Artist: 311
Song: Flowing
Tabbed by: Curtis McCartney (sharkydart@fuse.net)
Intro tabbed by: Justin Reynolds (jxstylez@aol.com) 

Email me with corrections if you're in a band called 311 and your name
is P-Nut.

Intro:
======

G:----------------
D:----------------
A:----3---2-------
E:-3----------5-2-
B:----------------

Riff 1:
=======

G:---------------------------------
D:---------------------------------
A:-4-4-4-4-3-3-3-3-2-2-2-2---------
E:-------------------------2-2-2-2-
B:---------------------------------

Riff 2:
=======

G:----------------------------
D:----------------------------
A:----------------------------
E:-1-222-3-444-111-2-4-5-444--
B:----------------------------

Riff 3:
=======

G:--------------------------------
D:--------------------------------
A:--------------------------------
E:-111-222-333-444-111-222-333-444
B:--------------------------------

(Listen for rhythm)

Riff 4:
=======

G:---------
D:---------
A:---------
E:-6-4-6-4-
B:---------

Ending:
=======

G:---
D:---
A:---
E:-2-
B:---
  development and support by
dmitry ivanov