rock
 
|tablatures   |lyrics   |discussion forums   |more tabs @ XGuitar.com

311 tabs

Electricity bass tab

'Electricity' -- Bass Tab
Performed by 311
From the album "Transistor" on Capricorn/Mercury Records
Music by:  N. Hexum 
Lyrics by:  N. Hexum
(c) 1997 Allegiance Music/Hydroponic Music BMI
---------------
Tabbed by: Tony Boehler (tboehler@adams.net)
The 311 Guitar Archive -- http://chromosome.colorado.edu/311archive/Home.html


Riff 1:
=======

1:-----------------------------
2:-----------------------------
3:-0-0-0---------2-2-2---3-3-3-
4:--------2-2-2----------------


Riff 2:
=======

1:-----------------------------------------------------------------
2:-----------------------------------------------------------------
3:-----------------------------------------2-----------------------
4:-0-0-0-0-0---0---2-2-2---3-3---2---0-2-3---0-0--0--2-2-2--3-3--2-


Riff 3:
=======

1:-----------------------
2:-----------------------
3:-0-------0-------0-----
4:---3-2-3---3-2-3---3-2-


Bridge:
=======

1:-----------------------
2:-----------------------
3:---7-7-5-5-------------
4:-----------8-7-7-5-5-3-


== Last Updated:  September 16, 1997 ==
  development and support by
dmitry ivanov