rock
 
|tablatures   |lyrics   |discussion forums   |more tabs @ XGuitar.com

311 tabs

Drugstore Cowgirl guitar tab

Author/Artist: 311
Title: Drugstore Cowgirl
Transcribed by: Chris Strife

Transcriber's note: This was done by ear on an acoustic with normal tuning, so it's probably WRONG! Pretty close though, so just fool around with it untill it's 100% perfect.

|--------------------------------------------------|---------------------------|
|-------------------------------------------------O|---------------------------|
|--------------------------------------------------|---------------------------|
|--------------------------------------------------|---------------------------|
|-2-0-2-0---------2-0-2-0---------2-0-2-0---------O|-2-0-2-0----------2-0-----2|
|---------2-3-2-3---------2-3-2-3---------2-3-2-3--|---------2-3-2-3------2-3--|

|---------------------------------------------|---------------------------------
|-3--3-3-3-5-3-2-3-2-0--0-0-0-0-0-2-2-2-3-2--O|-3-5-7--9-7-5--5-7-9-7--5-7-9-7--
|---------------------------------------------|---------------------------------
|---------------------------------------------|---------------------------------
|--------------------------------------------O|---------------------------------
|---------------------------------------------|---------------------------------

--------------------------------------------|--3-3--5-5--1-1--2-2----|
-5-7-9-7-5-3---2-3-2-0--0-0-0-0-0-2-2-2-3-2-|--3-3--5-5--1-1--2-2---O|
--------------------------------------------|--3-3--5-5--1-1--2-2----|
--------------------------------------------|--3-3--5-5--1-1--2-2----|
--------------------------------------------|--3-3--5-5--1-1--2-2---O|
--------------------------------------------|--3-3--5-5--1-1--2-2----|
                                              |- - -Palm Mute- - -|

|------------------------------------------------|
|-----------------------------------------------O|
|------------------------------------------------|
|--5-5-5-4-4--3-3-3-3-3--1-1-1-1-1--2-2-2-2-2----|
|--5-5-5-4-4--3-3-3-3-3--1-1-1-1-1--2-2-2-2-2---O|
|--5-5-5-4-4--3-3-3-3-3--1-1-1-1-1--2-2-2-2-2----|

|--------------------|-------------------------------|--3-3--5-5--1-1--2-2----|
|-------------------O|-------------------------------|--3-3--5-5--1-1--2-2---O|
|--------------------|-------------------------------|--3-3--5-5--1-1--2-2----|
|--------------------|-------------------------------|--3-3--5-5--1-1--2-2----|
|-4-2-4-2--0-1-0-1--O|--4-2-4-2--0-1-0-1--4-2-0-1-4--|--3-3--5-5--1-1--2-2---O|
|--------------------|-------------------------------|--3-3--5-5--1-1--2-2----|
                                                       |- - -Palm Mute- - -|

|-----------------------------------------------|
|----------------------------------------------O|
|-----------------------------------------------|
|--5-5-5-4-4--3-3-3-3-3--1-1-1-1-1--2-2-2-2-2---|
|--5-5-5-4-4--3-3-3-3-3--1-1-1-1-1--2-2-2-2-2--O|
|--5-5-5-4-4--3-3-3-3-3--1-1-1-1-1--2-2-2-2-2---|

|--------------------|-------------------------------|
|-------------------O|-------------------------------|
|--------------------|-------------------------------|
|--------------------|-------------------------------|
|-4-2-4-2--0-1-0-1--O|--4-2-4-2--0-1-0-1--4-2-0-1-4--|
|--------------------|-------------------------------|

|------------------------------|----------------------------------------|
|-----------------------------O|---------------------------------------O|
|------------------------------|----------------------------------------|
|-2-2-2--0-0-0--3-3-3--5-5-5---|--2-2-2-2--0-0-0-0--3-3-3-3--5-5-5-5----|
|-2-2-2--0-0-0--3-3-3--5-5-5--O|--2-2-2-2--0-0-0-0--3-3-3-3--5-5-5-5---O|
|-2-2-2--0-0-0--3-3-3--5-5-5---|--2-2-2-2--0-0-0-0--3-3-3-3--5-5-5-5----|

|----------------------------------------------------------------------|
|---------------------------------------------------------------------O|
|----------------------------------------------------------------------|
|----------------------------------------------------------------------|
|---------------------------------------------------------------------O|
|-2-2-2-2-2-2-2-2--0-0-0-0-0-0-0-0--3-3-3-3-3-3-3-3--5-5-5-5-5-5-5-5---|
 |- -Palm Mute this, then slow release at the end to next riff- - - - |

|-----------------------------|-----------------------------|------------------|
|----------------------------O|-----------------------------|------------------|
|-----------------------------|-----------------------------|------------------|
|-----------------------------|-----------------------------|------------------|
|----------------------------O|-----------------------------|------------------|
|--0-0-0-0-2/4-0-0-2/4-0-2/4--|--0-0-0-0-2/4-0-0-2/4-0-2/4--|--0-0-0-0-2/4-0-0-|

|---------------------------------------------|------------------
|-3--3-3-3-5-3-2-3-2-0--0-0-0-0-0-2-2-2-3-2--O|--3-5-7--9-11-13--
|---------------------------------------------|------------------
|---------------------------------------------|------------------
|--------------------------------------------O|------------------
|---------------------------------------------|------------------

|-------------------------------------------------------------------------|
|--11-13-14-13-14-16-14-16-17-15-14/12--12-10-12--10-8-10--8-6-8--6-3-----|
|-------------------------------------------------------------------------|
|-------------------------------------------------------------------------|
|-------------------------------------------------------------------------|
|-------------------------------------------------------------------------|

|----------------------------------------------|-------------------------------|
|---------------------------------------------O|------------------------------O|
|----------------------------------------------|-------------------------------|
|--5-5-5-4-4--3-3-3-3-3--1-1-1-1-1--2-2-2-2-2--|--2-2-2--0-0-0--3-3-3--5-5-5---|
|--5-5-5-4-4--3-3-3-3-3--1-1-1-1-1--2-2-2-2-2-O|--2-2-2--0-0-0--3-3-3--5-5-5--O|
|--5-5-5-4-4--3-3-3-3-3--1-1-1-1-1--2-2-2-2-2--|--2-2-2--0-0-0--3-3-3--5-5-5---|

|--------------------|-------------------------------|
|-------------------O|-------------------------------|
|--------------------|-------------------------------|
|--------------------|-------------------------------|
|-4-2-4-2--0-1-0-1--O|--4-2-4-2--0-1-0-1--4-2-0-1-4--|
|--------------------|-------------------------------|

|------------------------------|----------------------------------------|
|-----------------------------O|---------------------------------------O|
|------------------------------|----------------------------------------|
|-2-2-2--0-0-0--3-3-3--5-5-5---|--2-2-2-2--0-0-0-0--3-3-3-3--5-5-5-5----|
|-2-2-2--0-0-0--3-3-3--5-5-5--O|--2-2-2-2--0-0-0-0--3-3-3-3--5-5-5-5---O|
|-2-2-2--0-0-0--3-3-3--5-5-5---|--2-2-2-2--0-0-0-0--3-3-3-3--5-5-5-5----|

|----------------------------------------------------------------------|
|---------------------------------------------------------------------O|
|----------------------------------------------------------------------|
|----------------------------------------------------------------------|
|---------------------------------------------------------------------O|
|-2-2-2-2-2-2-2-2--0-0-0-0-0-0-0-0--3-3-3-3-3-3-3-3--5-5-5-5-5-5-5-5---|
 |- -Palm Mute this, then slow release at the end to next riff- - - - |

|-----------------------------|-----------------------------|------------------|
|----------------------------O|-----------------------------|------------------|
|-----------------------------|-----------------------------|------------------|
|-----------------------------|-----------------------------|------------------|
|----------------------------O|-----------------------------|------------------|
|--0-0-0-0-2/4-0-0-2/4-0-2/4--|--0-0-0-0-2/4-0-0-2/4-0-2/4--|--0-0-0-0-2/4-0-0-|
  development and support by
dmitry ivanov