rock
 
|tablatures   |lyrics   |discussion forums   |more tabs @ XGuitar.com

311 tabs

Down South bass tab

'Down South' -- Bass Tab
Performed by 311
From the album "Unity" on What Have You? Records
Music by:  N. Hexum, C. Sexton, M. Watkins & T. Mahoney
Lyrics by:  N. Hexum, C. Sexton, M. Watkins & T. Mahoney
(c) 1991 Allegiance Music/Hydroponic Music BMI
---------------
Tabbed by: Justin Reynolds (JxStylez@aol.com)
The 311 Guitar Archive -- http://chromosome.colorado.edu/311archive/


Main Riff:
==========

G:-------------------
D:-------------------
A:-----4-7-5-5-5-7-5-  
E:-5-5---------------
B:-------------------

Verse:
======

G:-------
D:-------
A:-----7-
E:-5-7---
B:-------

'Take my advice...':
====================

G:------------------------------9---9-----------
D:-----3--------6------4-7-4--------------------
A:-2-4---4--4-7---7--5--------7---7---7-5-4-----
E:------------------------------------------7-5-
B:----------------------------------------------

Hard Riff:
==========

G:-------------------
D:-------4-----------
A:-----4-------------
E:-2-5-----2-5-4-2---
B:-----------------5-

Fill:
=====

G:-----
D:-----
A:-----
E:-2---
B:---5-

'Psychedelic freak...':
=======================

G:---------------------
D:---------------------
A:-----4-4-4-----6-6-6-
E:-2-2-------4-4-------
B:---------------------

Last Note:
==========

G:---
D:---
A:---
E:-5-
B:---
  development and support by
dmitry ivanov