rock
 
|tablatures   |lyrics   |discussion forums   |more tabs @ XGuitar.com

311 tabs

Dont Tread On Me guitar tab

Title: Don't Tread On Me
Artist: 311
Album: Don't Tread On Me
Tabbed by: Jose L.


Standard Tuning: EADGBE

Intro (Distortion):
    Am            G6            N.C.
1:--5-------------------------------------------------------------------||
2:--5-------5---------------5-------------------------------------------||
3:--5---------5-----------7---7-4---------5-2---5-2----------4/5---4/5--||
4:--7-----7-----7-5----55---------5-3---3-----3-----3-2~---2-----2------||
5:--7-------------------------------------------------------------------||
6:--5-------------------------------------------------------------------||


Riff 1 (Clean):
    C           E7          Am          F
1:--8--8--8--8--7--7--7--7--5--5--5--5--5--5--5--5--||
2:--8--8--8--8--9--9--9--9--5--5--5--5--6--6--6--6--||
3:--9--9--9--9--7--7--7--7--5--5--5--5--5--5--5--5--|| (x2)
4:--------------------------------------------------||
5:--------------------------------------------------||
6:--------------------------------------------------||


Riff 2 (Clean):
       Am                              G
1:-x-x-5-x-x-x-5-x-x-x-5-x-x-x-5-x-x-x-3-x-x-x-3-x-x-x-3-x-x-x-3-x-|
2:-x-x-5-x-x-x-5-x-x-x-5-x-x-x-5-x-x-x-3-x-x-x-3-x-x-x-3-x-x-x-3-x-|
3:-x-x-5-x-x-x-5-x-x-x-5-x-x-x-5-x-x-x-4-x-x-x-4-x-x-x-4-x-x-x-4-x-| (x2)
4:-----------------------------------------------------------------|
5:-----------------------------------------------------------------|
6:-----------------------------------------------------------------|

       F                           E5/B    G
1:-x-x-5-x-x-x-5-x-x-x-5-x-x-x-5---------------3---||
2:-x-x-6-x-x-x-6-x-x-x-6-x-x-x-6--------5------3---||
3:-x-x-5-x-x-x-5-x-x-x-5-x-x-x-5----4---4--4---4---||
4:----------------------------------2---2--5-------||
5:----------------------------------2------5-------||
6:-----------------------------------------3-------||
                                   <--let ring--->


Riff 1 (Clean):
    C           E7          Am          F
1:--8--8--8--8--7--7--7--7--5--5--5--5--5--5--5--5--||
2:--8--8--8--8--9--9--9--9--5--5--5--5--6--6--6--6--||
3:--9--9--9--9--7--7--7--7--5--5--5--5--5--5--5--5--|| (x2)
4:--------------------------------------------------||
5:--------------------------------------------------||
6:--------------------------------------------------||


Riff 3 (Clean):
   A5                       G5                               F5                      E5/B D5/A C5/G B5/F#
1:-------------------------------------------------|       |---------------------------------------------||
2:-------------------------------------------------|       |---------------------------------------------||
3:-------------------------------------------------|       |--------------------------9----7----5----4---||
4:-------------------------------------------------|<(x2)  |--------------------------9----7----5----4---||
5:--------------------------------5-----------5----|       |-------3------------3-----7----5----3----2---||
6:-5-5-5-0--5--555-5-0--5---3-3-3---3---333-3----3-|       |-1-1-1----1---111-1----1--7----5----3----2---||
  <--------------------light P.M.--------------------------------------------------> <---distortion--->


Riff 4 (Distortion): * = strum
    A5   G5A5   F5   G5 A5   G5A5   F5    G5 A5   G5A5   F5   G5 E5
1:----------------------------------------------------------------------------------------||
2:----------------------------------------------------------------------------------------||
3:----------------------------------------------------------------------------------------||
4:--7-7--5/7-7--3-x3/5--7-7--5/7-7--3-x-3-5--7-7--5/7-7--3-x3/5---------------------------|| (x2)
5:--7-7--5/7-7--3-x3/5--7-7--5/7-7--3-x-3-5--7-7--5/7-7--3-x3/5--2------2-------------2---||
6:--5-5--3/5-5--1-x1/3--5-5--3/5-5--1-x-1-3--5-5--3/5-5--1-x1/3--0--3/5-0--3/5-0--3/5-0---||
                     *                                        *

Riff 5 (Distortion):
       C                               E7                              Am
1:-x-x-8-x-x-x-8-x-x-x-8-x-x-x-8-x-x-x-7-x-x-x-7-x-x-x-7-x-x-x-7-x-x-x-5-x-x-x-5-x-x-x-5-x-x-x-5--
2:-x-x-8-x-x-x-8-x-x-x-8-x-x-x-8-x-x-x-9-x-x-x-9-x-x-x-9-x-x-x-9-x-x-x-5-x-x-x-5-x-x-x-5-x-x-x-5--
3:-x-x-9-x-x-x-9-x-x-x-9-x-x-x-9-x-x-x-7-x-x-x-7-x-x-x-7-x-x-x-7-x-x-x-5-x-x-x-5-x-x-x-5-x-x-x-5--
4:------------------------------------------------------------------------------------------------
5:------------------------------------------------------------------------------------------------
6:------------------------------------------------------------------------------------------------

         F
1:-x-x-x-5-x-x-x-5-x-x-x-5-x-x-x-5-x--||
2:-x-x-x-6-x-x-x-6-x-x-x-6-x-x-x-6-x--||
3:-x-x-x-5-x-x-x-5-x-x-x-5-x-x-x-5-x--|| (x2)
4:------------------------------------||
5:------------------------------------||
6:------------------------------------||

[Plays w/ Riff 5]  Only 25% sure on these notes. Don't have to play them if you don't want to.
1:-------------------------------------1919-16-----------------------17---------------------------
2:----17-20------------------------------------17-----------------------17------------------------
3:-17---------------------------------------------19-----------------------17---------------------
4:------------------------------------------------------------------------------------------------
5:------------------------------------------------------------------------------------------------
6:------------------------------------------------------------------------------------------------

1:-17----------20-18-------20-17------|
2:----17--------------20---------18---|
3:-------17---------------------------|
4:------------------------------------|
5:------------------------------------|
6:------------------------------------|

1:-20----------------------------------1919-16-----------------------17---------------------------
2:----20-17------------------------------------17-----------------------17------------------------
3:----------17------------------------------------19-----------------------17---------------------
4:------------------------------------------------------------------------------------------------
5:------------------------------------------------------------------------------------------------
6:------------------------------------------------------------------------------------------------

1:-17----------20-18-------20-17------||
2:----17--------------20---------18---||
3:-------17---------------------------||
4:------------------------------------||
5:------------------------------------||
6:------------------------------------||


Break 1 for some crazy sounds.
(Distortion):
1:--------------------------------------------------||
2:---------------555555555555-----------------------||
3:-222222222222-------------------<-Sound FX->------||
4:--------------------------------------------------||
5:--------------------------------------------------||
6:--------------------------------------------------||


Riff 5 (Distortion):
       C                               E7                              Am
1:-x-x-8-x-x-x-8-x-x-x-8-x-x-x-8-x-x-x-7-x-x-x-7-x-x-x-7-x-x-x-7-x-x-x-5-x-x-x-5-x-x-x-5-x-x-x-5--
2:-x-x-8-x-x-x-8-x-x-x-8-x-x-x-8-x-x-x-9-x-x-x-9-x-x-x-9-x-x-x-9-x-x-x-5-x-x-x-5-x-x-x-5-x-x-x-5--
3:-x-x-9-x-x-x-9-x-x-x-9-x-x-x-9-x-x-x-7-x-x-x-7-x-x-x-7-x-x-x-7-x-x-x-5-x-x-x-5-x-x-x-5-x-x-x-5--
4:------------------------------------------------------------------------------------------------
5:------------------------------------------------------------------------------------------------
6:------------------------------------------------------------------------------------------------

         F
1:-x-x-x-5-x-x-x-5-x-x-x-5-x-x-x-5-x--||
2:-x-x-x-6-x-x-x-6-x-x-x-6-x-x-x-6-x--||
3:-x-x-x-5-x-x-x-5-x-x-x-5-x-x-x-5-x--||
4:------------------------------------||
5:------------------------------------||
6:------------------------------------||

[Plays w/ Riff 5]
1:-------------------------------------1919-16-----------------------17---------------------------
2:----17-20------------------------------------17-----------------------17------------------------
3:-17---------------------------------------------19-----------------------17---------------------
4:------------------------------------------------------------------------------------------------
5:------------------------------------------------------------------------------------------------
6:------------------------------------------------------------------------------------------------

1:-17----------20-18-------20-17------||
2:----17--------------20---------18---||
3:-------17---------------------------||
4:------------------------------------||
5:------------------------------------||
6:------------------------------------||


Part of Riff 5/Ending (Distortion):
       C                               E7                              Am
1:-x-x-8-x-x-x-8-x-x-x-8-x-x-x-8-x-x-x-7-x-x-x-7-x-x-x-7-x-x-x-7-x-x-x-5-x-x-x-5-x-x-x-5-x-x-x-5--||
2:-x-x-8-x-x-x-8-x-x-x-8-x-x-x-8-x-x-x-9-x-x-x-9-x-x-x-9-x-x-x-9-x-x-x-5-x-x-x-5-x-x-x-5-x-x-x-5--||
3:-x-x-9-x-x-x-9-x-x-x-9-x-x-x-9-x-x-x-7-x-x-x-7-x-x-x-7-x-x-x-7-x-x-x-5-x-x-x-5-x-x-x-5-x-x-x-5--||
4:------------------------------------------------------------------------------------------------||
5:------------------------------------------------------------------------------------------------||
6:------------------------------------------------------------------------------------------------||

[Plays w/ Riff 5]
1:-20----------------------------------1919-16-----------------------17---------------------------||
2:----20-17------------------------------------17-----------------------17------------------------||
3:----------17------------------------------------19-----------------------17---------------------||
4:------------------------------------------------------------------------------------------------||
5:------------------------------------------------------------------------------------------------||
6:------------------------------------------------------------------------------------------------||

Ending (Distortion):
   F5            G5   C5/G
1:----------------------------------||
2:----------------------------------||
3:---------------------5------------||
4:-3-----3-----3/5-----5--<-fade->--||
5:-3-----3-----3/5-----3------------||
6:-1-----1-----1/3-----3------------||
  development and support by
dmitry ivanov