rock
 
|tablatures   |lyrics   |discussion forums   |more tabs @ XGuitar.com

311 tabs

Don't Stay Home bass tab

'Don't Stay Home' -- Bass Tab
Performed by 311
From the album "311" on Capricorn Records
Music by:  N. Hexum
Lyrics by:  N. Hexum
(c) 1995 Allegiance Music/Hydroponic Music BMI
---------------
Tabbed by: Joel Kendall (joel@cboss.com)
The 311 Guitar Archive -- http://chromosome.colorado.edu/311archive/Home.html


Start:
======

1:----------------------
2:----------------------
3:--------5-------------
4:-3-3-3-----7-7-7-5--3-  (Repeat...)


Chorus:
=======

1:--------------------------------------
2:--------------------------------------
3:---4----------------------------------
4:-0---4-4--2-2-5-4-0---0-1-2-2--5-4--0-


Fast Part...
============

1:-------------
2:-------------
3:-------------
4:-0-2-3-0-2-3-


== Last Updated:  August 11, 1997 ==
  development and support by
dmitry ivanov