rock
 
|tablatures   |lyrics   |discussion forums   |more tabs @ XGuitar.com

311 tabs

Don't Dwell bass tab

this song is very hard to configure...

its off their album evolver...

key:
/=then, or next
//=slide to next note
x=silent slap of the thumb on bass
*=short note, or immediate stop

definately not 100% accurate, email me if theres a problem, i wont be able
to help you though, cause i dont know how to accurately play this piece
thanks for looking at it!

intro/verse: (slap bass)
G-------4-0---4-0----2-2----/---------4-0----4-0----5-5-
D---0h5-----5------x--------/-----0h5-----5------x------
A------------------4--------/---------------------4-----
E-x--------x----------------/---x-----------x-----------
B---------------------------/---------------------------

chorus:
G------7-7-------7-7-------7--
D----------------------------7
A-0h5-------0x5x---0----5-----
E-----------------------------
B-----------------------------

the part where nick says: and she told me dont dwell...
G--------------------/-7----7--------
D--------------------/---5-----------
A---2-3~----2---3-3*/--------5-5-5*--
E-5------3-3---3-----/---------------
B--------------------/---------------

G---------------------------------/-------8-----------8------
D-------------------2-------------/---6-8--8-5---6-8----8-6--
A----------------2---------2------/-6-----------6-----------5
E-0---0-2-3-5-3--------3-5----5-3-/--------------------------
B--0------------------------------/--------------------------

G---------------------------
D-------------------9//7//9-
A---------------------------
E-3*3*-5*5*-7*7*-8*---------
B---------------------------

ending: (very easy)
G---4-5-4----4-5-4---------------------------
D-5--------5---------------------------------
A----------------------2-3-2----2-3-2-1-0----
E-------------------3--------3---------------
B-----------------------------------------5~
  development and support by
dmitry ivanov