rock
 
|tablatures   |lyrics   |discussion forums   |more tabs @ XGuitar.com

311 tabs

Creatures (For a While) guitar tab

Creatures (For A While)

Tabbed by Ricardo Wright-Ramos (kwa4ever@nycap.rr.com)

Each part played only once unless otherwise indicated

Intro:

Guitar 1:
e:--------------------------------------------------------------
B:--------------------------------------------------------------
G:--------------------------------------------------------------
D:-8/6--6--6--x--6/4--4--4--x--x--8/6--6--6--x--6/4--4--4--x--x---
A:-6/4--4--4--x--4/2--2--2--x--x--6/4--4--4--x--4/2--2--2--x--x---
E:-6/4--4--4--x--4/2--2--2--x--x--6/4--4--4--x--4/2--2--2--x--x---

Guitars 1 & 2:
e:----------------------------------------------------------
B:----------------------------------------------------------
G:----------------------------------------------------------
D:-8/6--6--6--x--6/4--4--4--x--x--8/6--6--6--6--4--x--4--4--
A:-6/4--4--4--x--4/2--2--2--x--x--6/4--4--4--4--2--x--2--2--
E:-6/4--4--4--x--4/2--2--2--x--x--6/4--4--4--4--2--x--2--2--

Intro (cont.) w/ Vocals:

Guitars 1 & 2:
e:----------------------------------------------------------------
B:----------------------------------------------------------------
G:----------------------------------------------------------------
D:-8/6--6--6--x--6/4--4--4--x--x--8/6--6--6--x--6/4--4--4--x--x---
A:-6/4--4--4--x--4/2--2--2--x--x--6/4--4--4--x--4/2--2--2--x--x---
E:-6/4--4--4--x--4/2--2--2--x--x--6/4--4--4--x--4/2--2--2--x--x---

Guitars 1 & 2:
e:----------------------------------------------------------
B:----------------------------------------------------------
G:----------------------------------------------------------
D:-8/6--6--6--x--6/4--4--4--x--x--8/6--6--6--6--4--x--4--4--
A:-6/4--4--4--x--4/2--2--2--x--x--6/4--4--4--4--2--x--2--2--
E:-6/4--4--4--x--4/2--2--2--x--x--6/4--4--4--4--2--x--2--2--

Guitars 1 & 2:
e:----------------------------------------------------------------
B:----------------------------------------------------------------
G:----------------------------------------------------------------
D:-8/6--6--6--x--6/4--4--4--x--x--8/6--6--6--x--6/4--4--4--x--x---
A:-6/4--4--4--x--4/2--2--2--x--x--6/4--4--4--x--4/2--2--2--x--x---
E:-6/4--4--4--x--4/2--2--2--x--x--6/4--4--4--x--4/2--2--2--x--x---

Guitars 1 & 2:
e:------------------------------------------------
B:------------------------------------------------
G:------------------------------------------------
D:-8/6--6--6--x--6/4--4--4--x--x--8/6--6--6--6--4-
A:-6/4--4--4--x--4/2--2--2--x--x--6/4--4--4--4--2-
E:-6/4--4--4--x--4/2--2--2--x--x--6/4--4--4--4--2-

Pre-Verse (played twice):

Guitar 2:
e:----------------------------------------------------------------
B:----------------------------------------------------------------
G:-8/6--6--6--x--6/4--4--4--x--x--8/6--6--6--x--6/4--4--4--x--x---
D:-8/6--6--6--x--6/4--4--4--x--x--8/6--6--6--x--6/4--4--4--x--x---
A:-6/4--4--4--x--4/2--2--2--x--x--6/4--4--4--x--4/2--2--2--x--x---
E:-6/4--4--4--x--4/2--2--2--x--x--6/4--4--4--x--4/2--2--2--x--x---

Guitar 2:
e:----------------------------------------------------------
B:----------------------------------------------------------
G:-8/6--6--6--x--6/4--4--4--x--x--8-6--6--6--6--4--x--4--4--
D:-8/6--6--6--x--6/4--4--4--x--x--8/6--6--6--6--4--x--4--4--
A:-6/4--4--4--x--4/2--2--2--x--x--6/4--4--4--4--2--x--2--2--
E:-6/4--4--4--x--4/2--2--2--x--x--6/4--4--4--4--2--x--2--2--

Guitar 2:

e:----------------------------
B:-------------6~-------------
G:-4--4--4--4--5~-------------
D:-4--4--4--4--3~-------------
A:-2--2--2--2--3~-------------
E:-2--2--2--2-----------------

Verse:

Guitar 1:
e:---------------------------------------------- (x4)
B:----------------------------------------------
G:----------------------------------------------
D:----------------------------------------------
A:----------------------------------------------
E:-1--x--1--3--3--1----1--x--1--3--3--1---------

Guitar 2:

e:--------------------------------------------------- (x2)
B:---------------------------------------------------
G:---------------------------------------------------
D:--4--4--4--4--4--4--4--4--4--4--4--4--4--4--4--4---
A:--4--4--4--4--4--4--4--4--4--4--4--4--4--4--4--4---
E:--2--2--2--2--2--2--2--2--2--2--2--2--2--2--2--2---

Guitar 2:
e:---------------------------------------------------------------------- (x2)
B:----------------------------------------------------------------------
G:----------------------------------------------------------------------
D:--3--x--3--6--x--6--3--x--x--x--x----3--x--3--6--x--6--3--x--x--x--x--
A:--3--x--3--4--x--4--3--x--x--x--x----3--x--3--6--x--6--3--x--x--x--x--
E:--1--x--1--4--x--4--1--x--x--x--x----1--x--1--4--x--4--1--x--x--x--x--

Pre-Chorus:

Guitar 2:

e:--------------------------------------------------- (x2)
B:---------------------------------------------------
G:---------------------------------------------------
D:--4--4--4--4--4--4--4--4--4--4--4--4--4--4--4--4---
A:--4--4--4--4--4--4--4--4--4--4--4--4--4--4--4--4---
E:--2--2--2--2--2--2--2--2--2--2--2--2--2--2--2--2---

Guitar 2:
e:-------------------------------------------- (x3)
B:--------------------------------------------
G:--------------------------------------------
D:--6--x--4--x--7--x--6--4---x--7-------------
A:--6--x--4--x--7--x--6--4---x--7-------------
E:--4--x--2--x--5--x--4--2---x--5-------------

Guitar 2:
e:-------------------------------
B:-------------------------------
G:-------------------------------
D:--x--6--4--7----x--6--4--7-----
A:--x--6--4--7----x--6--4--7-----
E:--x--4--2--5----x--4--2--5-----

Guitar 2:
e:-------------------------------------------- (x3)
B:--------------------------------------------
G:--------------------------------------------
D:--6--x--4--x--7--x--6--4---x--7-------------
A:--6--x--4--x--7--x--6--4---x--7-------------
E:--4--x--2--x--5--x--4--2---x--5-------------

Guitar 2:
e:-------------------------------
B:-------------------------------
G:-------------------------------
D:--x--6--4--7----x--6--4--7-----
A:--x--6--4--7----x--6--4--7-----
E:--x--4--2--5----x--4--2--5-----

Guitar 2:
e:-----------------------------------
B:-----------------------------------
G:-----------------------------------
D:--7-------7-------7-------7--------
A:--7-------7-------7-------7--------
E:--5--<5>--5--<5>--5--<5>--5--<5>---

First time through, go to Chorus

Second time through, go to Pre-Chorus Extension (Found At The End)

Chorus:

Guitar 2:
e:----------------------------------------------------------------
B:----------------------------------------------------------------
G:-8/6--6--6--x--6/4--4--4--x--x--8/6--6--6--x--6/4--4--4--x--x---
D:-8/6--6--6--x--6/4--4--4--x--x--8/6--6--6--x--6/4--4--4--x--x---
A:-6/4--4--4--x--4/2--2--2--x--x--6/4--4--4--x--4/2--2--2--x--x---
E:-6/4--4--4--x--4/2--2--2--x--x--6/4--4--4--x--4/2--2--2--x--x---

Guitar 2:
e:----------------------------------------------------------
B:----------------------------------------------------------
G:-8/6--6--6--x--6/4--4--4--x--x--8-6--6--6--6--4--x--4--4--
D:-8/6--6--6--x--6/4--4--4--x--x--8/6--6--6--6--4--x--4--4--
A:-6/4--4--4--x--4/2--2--2--x--x--6/4--4--4--4--2--x--2--2--
E:-6/4--4--4--x--4/2--2--2--x--x--6/4--4--4--4--2--x--2--2--

Guitar 2:

e:----------------------------
B:-------------6~-------------
G:-4--4--4--4--5~-------------
D:-4--4--4--4--3~-------------
A:-2--2--2--2--3~-------------
E:-2--2--2--2-----------------

Repeat Verse

Repeat Pre-Chorus

Pre-Chorus Extension:

Guitar 2:
e:-----------------------------------
B:-----------------------------------
G:-----------------------------------
D:--6-------6-------6-------6--------
A:--6-------6-------6-------6--------
E:--4--<4>--4--<4>--4--<4>--4--<4>---

Guitar 2:
e:------------------------------------------------------------------- (x3)
B:-------------------------------------------------------------------
G:-------------------------------------------------------------------
D:--7-------7-------7-------7-------6-------6-------6-------6--------
A:--7-------7-------7-------7-------6-------6-------6-------6--------
E:--5--<5>--5--<5>--5--<5>--5--<5>--4--<4>--4--<4>--4--<4>--4--<4>---

Guitar 2:
e:-----------------
B:-----------------
G:-----------------
D:--6--6--4--4-----
A:--6--6--4--4-----
E:--4--4--2--2-----

Repeat Chorus

That's it!
  development and support by
dmitry ivanov