rock
 
|tablatures   |lyrics   |discussion forums   |more tabs @ XGuitar.com

311 tabs

Creatures (For a While) bass tab

This is a bass tab for 311- Creatures and figured it
out and then realized there was already a version on 311heaven.com.
Most of the parts were pretty much the same, but I changed some.

E-mail me at chris.funkhouser@houstonchristianhs.org if i messed some stuff up


Verse A:
==========
G:-------------------
D:-------------------
A:-------------------
E:-------------------
B:-4\\2--2-2-2p0--0-0-

Verse B:
==========
G:-------------------
D:-------------------
A:-------------------
E:-------------------
B:-4\\2-2-2-2-2-2-0-0-

Verse Ending:
==========
G:----------
D:----------
A:----2-2---
E:--------1-
B:-0-0------



Riff 1:
==========
G:---------------------
D:---11-11-------------
A:-9-------9-9---------
E:-------------8/9-----
B:----------------------

G:---------------------
D:---11-11-------------
A:-9-------9-9---------
E:-------------8/9-----
B:----------------------


G:---------------------
D:---11-11-------------
A:-9-------9-9---------
E:-------------8/9-----
B:----------------------

G:----------------------
D:----11----------------
A:--9----12--------------
E:----------9/8----------
B:-----------------------


Riff 2:
=========
G:-------------------
D:-----4--------4----
A:---------4---------
E:-2-2---2----2---2---
B:-------------------

Riff 3:
==============
G:-------------
D:-------------
A:-------------
E:--1-1--4-4-1-
B:-------------

Chorus:
==========
G:------------------------------------------------------
D:------------------------------------------------------
A:------------------------------------------------------
E:-4-2-5-4-2-5---2-4-5-4-2-5--4-2-5-4-2-5--4-2-5--4-2-5-
B:------------------------------------------------------

Riff 4:
==========
G:-------------
D:-------------
A:-------------
E:-5--5--5--5--
B:--5--5--5--5-


Riff 5:
==========
G:--------
D:--------
A:--------
E:-4---2--
B:--------



Interlude:
==============
G:--------------------------
D:-6----------7-------------
A:---6-3-x------7-4-x-------
E:---------2----------2/4---
B:--------------------------
  development and support by
dmitry ivanov