rock
 
|tablatures   |lyrics   |discussion forums   |more tabs @ XGuitar.com

311 tabs

Champagne guitar tab

'Champagne'
Performed by 311
From the album "From Chaos" on Volcano Records
Music by:  [Unknown]
Lyrics by:  [Unknown]
(c) 2000/2001 Hydroponic Music BMI
---------------
Tabbed by: Ryan Abts (PhishHippo@aol.com)
Additions/Corrections by: Michael Slusarz (slusarz@bigworm.colorado.edu)
Lyric Help by: Gourdin Sirles (matrixg182@hotmail.com)
               Michael Slusarz (slusarz@bigworm.colorado.edu)
               JxStylez (jxstylez@aol.com)
               Perplexy484 (Perplexy484@aol.com)
The 311 Guitar Archive -- http://bigworm.colorado.edu/311archive/


Intro/Riff 1 (Clean):
=====================
   A/E         N.C.         G/D         N.C.
e:-12-----------------------10--------------------
B:----14-----------------------12-----------------
G:-------14-----------------------12--------------
D:----------14-12-11h12p11-----------12-10-9h10p9-
A:------------------------------------------------
E:------------------------------------------------

Chorus (Clean):
===============
   Am                    A
e:-8----8--8---8---8--8--5--5-5--5--5-5-
B:-10--10-10--10--10-10--5--5-5--5--5-5-
G:-9----9--9---9---9--9--6--6-6--6--6-6-
D:--------------------------------------
A:--------------------------------------
E:--------------------------------------

Ending (Clean):
==============
   N.C.                    Amaj7
e:-12----14-------------------
B:-------------15----12----14-
G:-------------------------13-
D:-------------------------14-
A:-------------------------12-
E:----------------------------


Song Structure/Lyrics:
======================
---> Play Intro (x2)
---> Play Riff 1 over:
Nick:
   I will never understand you
   When will I stop tryin', i mean
   'Cuz its just not how I plan to
   Spend my time till dyin' I mean
   Champagne, California on the brain
   She got an appetite for no refrain
   Just verses and curses the blood vessel burst and defiant
   She made alliance to the dark side of Hollywood
   Where everything looks good
   Someone treat her as the other playa would
   Lightly, but she wants to fight me, too bad
---> Play Chorus over:
Nick:
   Yea thats just too bad
   I can't be around to pick up your past, and your debts
   She wants to love me with threats
   I'm not takin chances picture my past with other girls
   And everybody cause I'm free, free
---> Play Riff 1 over:
Nick:
   I will never understand you
   When will I stop tryin', i mean
   'Cuz its just not how I plan to
   Spend my time till dyin' I mean
---> Play Chorus over:
SA:
   Lovin' me isn't easy
   I'm over this thing I'm leaving
   But when I look at you it's like playing with my eyes
   Follow you, sleeps not one man
   Can finally be friends maybe I'm not an
   Angel but girl you make me feel like I know one, why?
---> Play Riff 1 over:
Nick:
   Champagne, California on the brain
   She got an appetite for no refrain
   Just verses and curses the blood vessel burst and defiant
   She made alliance to the dark side of Hollywood
   Where everything looks good
   Someone treat her ass like the other sucka would
   Tightly but she wants to fight me, too bad
---> Play Chorus over:
Nick:
   Yea thats just too bad
   I can't be around to pick up your past, and your debts
   She wants to love me with threats
   I'm not takin chances picture my past with other girls
   And everybody cause I'm free, free
---> Play Ending over:
Nick:
   Never understand
  development and support by
dmitry ivanov