rock
 
|tablatures   |lyrics   |discussion forums   |more tabs @ XGuitar.com

311 tabs

Champagne bass tab

Song:Champange
Band:311
Album:From Chaos

This is a nice little mellow song off 311's album, From Chaos. It goes 
slow, but the bass part is quite catchy. P-nut uses a five string  bass, but 
he only uses the low B-string on one note of this song, so you can just play 
it an octive higher if you don't have a five string.(like me.)

  Wait until 10 seconds into the song until playing.
  Repeat these 2 lines 4x.
G:-------------------------------------------------------------------
D:-------------------------------------------------------------------
A:---0---------------------------------------------------------------
E:--------3-5-3-5-3-7-5---3---3-3-3-3-3-3--5---2-----5-----2--3------

G:-------------------------------------------------------------------
D:-------------------------------------------------------------------
A:--2---5-5-5-5------------------------------------------------------
E:-------------------------------------------------------------------

   Then repeat this line 2x
G:-------------------------------------------------------------------
D:-------------------------------------------------------------------
A:-------0-------0--------0-----------0-------0---2-----5-5-5-5------
E:-1---------3-0-------0-----0--1---------3-0------------------------


   After that, repeat first 2 lines 2x once again
   Then repeat that 3rd line 2x

   Then play this and let each note ring..
G:-------------------------------------------------------------------
D:-------------------------------------------------------------------
A:-------------------------------------------------------------------
E:-----5------------3-------------2-------------3--------------------


   Once again the first 2 lines 1x
   Then play the 3rd line 2x

   And finally end on this string of notes. Last note is on the b-string.

G:-------------------------------------------------------------------
D:-------------------------------------------------------------------
A:-------5------4------2------0--------------------------------------
E:-------------------------------------------------------------------
B:-----------------------------------3-------------------------------

  This may look confusing, but if you get the CD, try it because I am pretty 
sure that this is right. Good song.
  development and support by
dmitry ivanov