rock
 
|tablatures   |lyrics   |discussion forums   |more tabs @ XGuitar.com

311 tabs

Blizza guitar tab

'Blizza'
Performed By 311
An outtake from the album "Soundsystem" on Capricorn Records
Music by: ???
(c) 1999 Hydroponic Music BMI 
---------------
Tabbed by: Gavin Kalan (Parker_311@yahoo.com)
           Michael Slusarz (slusarz@chromosome.colorado.edu)
The 311 Guitar Archive -- http://chromosome.colorado.edu/311archive/


Keyboard (for Guitar):
======================
   (B)                        (E)                         (F)
1:----------------------------------------------------------------------
2:----------------------------------------------------------------------
3:---------4-------------4----------1-4-1---------1-4-1---------2-5-2---
4:-(4)-1-4---4-1-(4)-1-4--4-1-----2-------2-----2-------2-----3-------3-
5:--2-------------2-----------(2)-----------(2)-----------(3)-----------
6:-----------------------------0-------------0-------------1------------

   (D)           N.C.
1:---------------------------------------
2:---------------------------------------
3:---------2-------3-0---1-3-------------
4:-(0)-0-4---4-0-1-----0-------6-3---5-2-
5:--0------------------------4-----3-----
6:---------------------------------------

Lead Guitar:
============
   N.C.
1:--------------------------------------------------------
2:----------2-4-5-4-2-------------------------------------
3:-4--4--4------------4-------------5-3-----3-2-5-3-------
4:-----------------------6--6--6-6--------3-----------(6)-
5:--------------------------------------------------------
6:--------------------------------------------------------
                                                       * Play Last time
                                                         Only
  development and support by
dmitry ivanov