rock
 
|tablatures   |lyrics   |discussion forums   |more tabs @ XGuitar.com

311 tabs

Blizza bass tab

'Blizza'
Performed By 311
An outtake from the album "Soundsystem" on Capricorn Records
Music by: ???
(c) 1999 Hydroponic Music BMI 
---------------
Tabbed by: Justin Reynolds (jxstylez@aol.com)
The 311 Guitar Archive -- http://chromosome.colorado.edu/311archive/


Riff:
=====

G:-----------------------------------------------
D:-----------------------------------------------
A:-2-2--2-2-2--2---------------------------2-1-1-
E:---------------0-0--0-0-0--0-0-0-0--1-1--------
B:-----------------------------------------------

G:-------------------------
D:---1-4-3-0---------------
A:-2---------4-3-1---------
E:-----------------4-3-0---
B:-----------------------4-
  development and support by
dmitry ivanov