rock
 
|tablatures   |lyrics   |discussion forums   |more tabs @ XGuitar.com

311 tabs

Amber bass tab

Song: Amber
Artist: 311
Album: From Chaos
Tabbed by: Jeff Lipchus (lipchusj@fpc.edu)

This should be right for the most part.  If
you know of any corrections, just e-mail me.
It's probably played on a 5 string, but I 
tabbed it for a 4 string.

Main Riff, Verse and Chorus
                             
G|---------------------------------------------------|
D|---------------------------------------------------|
A|---------------------------------------------------|
B|--12-12-12--12--12--9--9--9----4-4-4--4--4--4-7-4--|


Post-Chorus Riff   

G|---------------------------------------------------------|
D|---------------------------------------------------------|
A|---------------------------------------5--------------5--|
B|--2-2-2--2---2-2--2--2--2--7-7--7-11-7----7-7--7-11-7----|


This comes in at about 2:08
                                                                            
G|-------|
D|-------|
A|-------|
B|--2/0--|


2:13
                              
G|------------------------------------------------|
D|------------------------------------------------|
A|--0-0-0--0--0--0-----0--------------------------|
B|------------------4-------4-4-4--4--4--4--0--4--|


2:25
                              
G|------------------------------------------------|
D|------------------------------------------------|
A|------------------------------------------------|
B|--5-5-5--5--5--5--2--5----4-4-4--4--4--4--0--4--|

          
2:33
                                        
G|-----------------------------------|
D|-----------------------------------|
A|-----------------------------------|
B|--4-4-4--4----7--7/17-17-19-19-17--|
  development and support by
dmitry ivanov