rock
 
|tablatures   |lyrics   |discussion forums   |more tabs @ XGuitar.com

311 tabs

All Mixed Up bass tab

311 Bass Tab For The Song "All Mixed Up" 
>From Their Capricorn Recording "Self-Titled"
Tabbed By Beau Everette (keli@gate.net)

Intro
|------------|---------------------|-----------|---------------------|
|------------|---------------------|-----------|---------------------|
|--4----5----|---------------------|-----------|------------------5--|
|------------|-6-6-----4---4---4---|-----------|-x-6-x--------5-6----|
|------------|-------6---6---6-----|-2----3----|-------4-5--6--------|

|------------|---------------------|-----------|---------------------|
|------------|---------------------|-----------|---------------------|
|------------|---------------------|-----------|------------------5--|
|------------|-6-6-----4---4---4---|-----------|-x-6-x--------5-6----|
|-2----3-----|-------6---6---6-----|-2----3----|-------4-5--6--------|

Verses
|------------|---------------------|-----------|---------------------|
|------------|---------------------|-----------|---------------------|
|------------|---------------------|-----------|------------------5--|
|------------|-6-6-----4---4---4---|-----------|-x-6-x--------5-6----|
|-2----3-----|-------6---6---6-----|-2----3----|-------4-5--6--------|

Pre-Choruses
|---------------------------|
|---------------------------|
|---------------------------| x4
|-6-6-6---0h1-4-4-4-4-4-4-4-|
|---------------------------|

Chorus
|------------------------------| 
|------------------------------|
|------------------------------| x2
|-6-6-6-6-6--0h1-4-4-4-4-4-4-4-|
|------------------------------|

|---------------------------|------------------------------| 
|---------------------------|------------------------------|
|---------------------------|------------------------------| 
|-6-6-6---0h1-4-4-4-4-4-4-4-|-6-6-6-6-6--0h1-4-4-4-4-4-4-4-|
|---------------------------|------------------------------|

Interlude
|----------------------------------|
|----------------------------------|
|-----------8/11-11-11-11-11-11-11-| x2
|-6---6---6------------------------|
|----------------------------------|

|--------------------------------|
|--------------------------------|
|-----------8/11----8/11----8/11-|
|-6---6---6-------6-------6------|
|--------------------------------|

|-------------------------|
|-------------------------|
|-------------------------| x2
|-6--6--0h1-4-4-4-4-4-4-4-|
|-------------------------|

Bridge
|-------------|
|-------------|
|-------------|
|-6---6-4---4-|
|-------------|

|----------------------------|
|----------------------------|
|----------------------------| x3
|-6--6-6---0h1-4-4-4-4-4-4-4-|
|----------------------------|

|-----------------------------|---------------------|
|-----------------------------|---------------------|
|-----------------------------|---------------------|
|-6-6-6-6-6-0h1-4-4-4-4-4-4-4-|-6-------------------|
|-----------------------------|---------------------|
  development and support by
dmitry ivanov