rock
 
|tablatures   |lyrics   |discussion forums   |more tabs @ XGuitar.com

311 tabs

8:16 A.M. bass tab

'8:16 A.M.' -- Bass Tab 
Performed by 311
From the album "Grassroots" on Capricorn Records
Music by:  N. Hexum
Lyrics by:  N. Hexum
(c) 1994 Allegiance Music/Hydroponic Music BMI
---------------
Tabbed by: Justin (illihexill@aol.com)
The 311 Guitar Archive -- http://chromosome.colorado.edu/311archive/


Intro:
======

G:-----------------------------------------------------------
D:-----------------------------------------------------------
A:--2-2----------------------------2--3-3--2-2---------------
E:------5------------2-3-5-3-2---3-----------------------2-3-
B:--------5-----5------------------------------5--5----------

G:---------x------------x----------------------------------------
D:-----x-----x------x-----x------x---5---------------------------
A:-----x-----x------x-----x------x-------2-2---------------------
E:-----x-x---x-x----x-x---x-x----x-x---------5------------2-3--5-
B:---5------------5------------5---------------5-----5-----------
     
G:-------------------------------------------------------
D:-------------------------------------------------------
A:-----------2---3--3---2-2------------------------------
E:---3--2--3----------------5--------------2-3---3-3-2-2-
B:----------------------------5-----5--------------------

Riff 1:
=======

G:----------------------------------------------------------------
D:----------------------------------------------------------------
A:---------------------2--5---------------2--5------------2-4-5h7-
E:---------------3-5----------------3-5-------------2---5---------
B:--5--5----5-------------------5---------------------------------

G:------------------------
D:------------------4p2---
A:--------2-4--5-7------4-
E:--2---5-----------------
B:------------------------

Riff 2:
=======

G:-----------------------------------------------
D:-----------------------------------------------
A:-5h7--------5h7--5--7-----5h7--------5h7--5--7-
E:------3--5---------------------3--5------------
B:-----------------------------------------------

G:------------------------------------------------
D:------------------------------------------------
A:------------------------------------------------
E:-------5--7--------------------5--7--5----------
B:--5h7--------5h7--5--7----5h7-----------7--5--7-

Chorus:
=======

G:----------------------------------------------------
D:--------------7-------------7-----7-7---7-----------
A:---9h7-----------4-4-5---7-----------------4--5---7-
E:-------9--5--------------------5--------------------
B:----------------------------------------------------

G:-----------------------------------------------
D:--------------------4------4-4--4------------4-
A:-----7--7h9----7--5-----------------7---5-7----
E:--3--------------------3-----------------------
B:-----------------------------------------------
  development and support by
dmitry ivanov