rock
 
|tablatures   |lyrics   |discussion forums   |more tabs @ XGuitar.com

311 tabs

1,2,3 bass tab

'1,2,3' -- Bass Tab
Performed by 311
From the album "Grassroots" on Capricorn Records
Music by:  N. Hexum & C. Sexton
Lyrics by:  N. Hexum
(c) 1994 Allegiance Music/Hydroponic Music BMI
---------------
Tabbed by: Eric Bowman (311rulez@columbus.rr.com)
           Kevin Clark (Scruff311@aol.com)
The 311 Guitar Archive -- http://bigworm.colorado.edu/311archive/


Riff 1:
=======
 
G:----------------------------
D:----------------------------
A:-4------4------1------1-----
E:---1-1----1-1----0-0----0-0-
B:----------------------------
 
Riff 2:
=======
 
G:-------------------------- 
D:-------------------------- 
A:-4------4------1------2-1-
E:---1-1----1-1----0-0------
B:--------------------------
 
Riff 3 (Tim's Solo):
====================

G:--------------------------
D:--------------------------
A:-5-5-5-5------5-5-5-----5-
E:---------5-5---------5----
B:--------------------------
 
Riff 4:
=======

G:-------------------------------------------------------------------------
D:-------------------------------------------------------------------------
A:-4-4-4-4------4-4-4---4---5-5-5-5------5-5-5---5--4-4-4-4------4-4-4-----
E:---------4-4--------4-------------5-5--------5------------4-4--------4-2-
B:-------------------------------------------------------------------------
 
Riff 5 (Chorus):
================

G:-------------------------------------------------
D:-----2-4-2-------2-4-2-------2-4-2-------4-2-2-2-
A:-2-4-------4-0-4-------4-2-4-------4-0-4---------
E:-------------------------------------------------
B:-------------------------------------------------
 
Riff 6 (Same chorus, octave lower):
===================================

G:----------------------------------------------------------
D:------------------------------------------------------2-2-
A:----------------0---------------------------0-------------
E:------0-2-0----------0-2-0--------0-2-0-----------2-0-----
B:-0-2----------2---2--------2-0-2---------2-----2----------
 
Riff 7 (Nick's Long Singing Solo):
==================================

G:----------------------------------------------------------------------------
D:----------------------------------------------------------------------------
A:----------------------------------------------------------------------------
E:0-2-4-2-4-5-5-4-2-0-2-4-2-4-5-5-4-2-0-2-4-2-4-5-5-4-2-0-2-4-2-4-5-5-4-4-2-2-
B:----------------------------------------------------------------------------
 
Riff 8:
=======

G:-----------------------------------------------------------------------------
D:-----------------------------------------------------------------------------
A:-----------------------------------------------------------------------------
E:0-2-4-2-4-5-5-4-2-0-2-4-2-4-5-5-4-2-0-2-4-2-4-5-5-4-2-0-2-4-2-4-5-7-0-2-4-5-7
B:-----------------------------------------------------------------------------
 
Riff 9 (Last Chorus):
=====================

G:-------------------------------------------------------------
D:-------------------------------------------------2-2-2-2-----
A:--------------0--------------------------0-------------------
E:-----0-2-0--------0-2-0--------0-2-0---------2-0---------2-2-
B:0-2---------2---2-------2-0-2----------2---2-----------------
 
 
Song Structure:
===============
Riff 1
Riff 2
Riff 3
Riff 4
Riff 5
Riff 1
Riff 2
Riff 3
Riff 4
Riff 6
Riff 7
Riff 8
Riff 9

[Version 2:]

Riff 1: (Long time did i run down like that...)
=======

G:----------------------------------------------
D:----------------------------------------------
A:-4------------4-----------2-----------2-------
E:-----2-2-2-------2-2-2------0-0-0------0-0-0--


Riff 2:
=======

G:------------------------------------------------------------------
D:------------------------------------------------------------------
A:--5-5-5-5-0---0-5-5-5-5-0--5--4-4-4-4---------4-4-4-4------4------
E:-----------------------------------------------4---4------------4-


Riff 3: (It's alright to feel good...)  
=======

G:---------------------------------------------------
D:-----------2--4---2---------------2--4---2---------
A:--2---4---------------4--0---4---------------4-----
E:---------------------------------------------------


Riff 4: (Just what did he say stop...)
=======

G:-----------------------------------------------------------------             
D:-----------------------------------------------------------------
A:-----------------------------------------------------------------
E:--0-2-4---2-4-5----5-4-2---0-2-4---2-4-5--(5)-(4)--(4)-(2)--(2)--         

( ) = only play on 4th time through, (you'll hear it on CD)
  development and support by
dmitry ivanov